Oops, an error
Loading. Please wait.

Balaclava Bass Tab

version 7
version 7

Interactive

1,438 views 6 this week
no commentswrite comment
1 2 3 4 5
excellent!
x 2
add to favorites
launch autoscroll
font size
0
reset
guitar tuner
Tab Pro tools
  • play this tab
  • loop segment
  • change instrument
  • show fretboard
  • metronome
Autoscroll
slow
fast
+/-
esc
set tempo
stop
Contributor
Artist: Arctic Monkeys

Album: Favourite Worst Nightmare



All tabs by Pedro Zappa
-----------------------------------------------------------------------------
-----------------------------------------------------------------------------


4. Balaclava 


Intro

G||--------------------|--------------------||  x4
D||--------------------|--------------------||
A||------5----7----9---|------4---------5---||
E||-7------------------|-5---------3--------||
    i    i    i    i     i    i    i    i

Verse 1

G||--------------------|--------------------||  x2
D||--------------------|------11------------||
A||------5----7----9---|-12--------10---5---||
E||-7-7----------------|--------------------||
    i    i    i    i     i    i    i    i
G||--------------------|--------------------||
D||--------------------|--------------------||
A||------5----7----9---|------4---------5---||
E||-7------------------|-5---------3--------||
    i    i    i    i     i    i    i    i
G||--------------------|--------------------||
D||--------------------|------11------------||
A||------5----7----9---|-12--------10---5---||
E||-7-7----------------|--------------------||
    i    i    i    i     i    i    i    i

Chorus 1

G||--------------------|--------------------|
D||------4-0-----------|--------------------|
A||-2---2-----2--------|-02--02-0---------0-|
E||--------------------|-----------2-2--3---|
    i    i    i    i     i    i    i    i
G||--------------------|--------------------||  x2
D||------4-0-----------|--------------------||
A||-2222------2--------|--------------------||
E||--------------------|-35--35-3--2------/-||
    i    i    i    i     i    i    i    i


Verse 2

G||--------------------|--------------------||
D||--------------------|--------------------||
A||--------------------|------4---------5---||
E||--------------------|-5---------3--------||
    i    i    i    i     i    i    i    i
G||--------------------|--------------------||  x2
D||--------------------|------11------------||
A||------5----7----9---|-12--------10---5---||
E||-7-7----------------|--------------------||
    i    i    i    i     i    i    i    i
G||--------------------|----------------------||
D||--------------------|-------11-11----------||
A||------5----7----9---|-12-12----------------||
E||-7-7----------------|----------------------||
    i    i    i    i     i     i     i    i

Bridge

G||--------------------|--------------------|
D||-9-9--9-9--9-9--9-9-|-9-9--9-9--9-9--9-9-|
A||--------------------|--------------------|
E||--------------------|--------------------|
    i    i    i    i     i    i    i    i
G||--------------------|--------------------|
D||-7-7--7-7--7-7--7-7-|-7-7--7-7--7-7--7-7-|
A||--------------------|--------------------|
E||--------------------|--------------------|
    i    i    i    i     i    i    i    i
G||--------------------|--------------------||  
D||-5-5--5-5--5-5--5-5-|-4-4--4-4--4-4--4-4-||
A||--------------------|--------------------||
E||--------------------|--------------------||
    i    i    i    i     i    i    i    i
G||------11---------11---|------11----12-12--12-12-|| x2
D||-9-9-----9--9-9-----9-|-9-9-----9---------------||
A||----------------------|-------------------------||
E||----------------------|-------------------------||
    i    i     i    i      i    i     i      i
G||--------------------|--------------------|
D||-7-7--7-7--7-7--7-7-|-7-7--7-7--7-10-9-7-|
A||--------------------|--------------------|
E||--------------------|--------------------|
    i    i    i    i     i    i    i    i
G||--------------------|--------------------|
D||-5-5--5-5--5-5--5-7-|-4-4--4-4--4-4--4-4-|
A||--------------------|--------------------|
E||--------------------|--------------------|
    i    i    i    i     i    i    i    i

Chorus 2

G||--------------------|--------------------|
D||------4-0-----------|--------------------|
A||-2---2-----2--------|-02--02-0---------0-|
E||--------------------|-----------2-2--3---|
    i    i    i    i     i    i    i    i
G||--------------------|--------------------||  x2
D||------4-0-----------|--------------------||
A||-2222------2--------|--------------------||
E||--------------------|-35--35-3--2------/-||
    i    i    i    i     i    i    i    i

Verse 3

G||--------------------|--------------------||  x3
D||--------------------|------11------------||
A||------5----7----9---|-12--------10---5---||
E||-7-7----------------|--------------------||
    i    i    i    i     i    i    i    i
G||--------------------|--------------------||
D||--------------------|--------------------||
A||------5----7----9---|------4---------5---||
E||-7------------------|-5---------3--------||
    i    i    i    i     i    i    i    i
G||--------------------|--------------------||  x8
D||--------------------|------11------------||
A||------5----7----9---|-12--------10---5---||
E||-7-7----------------|--------------------||
    i    i    i    i     i    i    i    i

Outro

G||--------------------|--------------------||  x5
D||--------------------|--------------------||
A||--------5---------9-|-0------4---------5-||
E||-7-----------0------|-------------3------||
    i    i    i    i     i    i    i    i
G||--------------------|--------------------|
D||--------------------|--------------------|
A||--------5---------9-|--------------------|
E||-7-----------0------|--------------------|
    i    i    i    i     i    i    i    i
G||--------------------|--------------------||  x3
D||--------------------|--------------------||
A||--------5---------9-|-0------4---------5-||
E||-7-----------0------|-------------3------||
    i    i    i    i     i    i    i    i
G||--------------------|--------------------|
D||--------------------|--------------------|
A||--------5---------9-|--------------------|
E||-7-----------0------|--------------------|
    i    i    i    i     i    i    i    i


Tab by Pedro Zappa
-----------------------------------------------------------------------------
-----------------------------------------------------------------------------
comments
We did not receive enough feedback on this tab! Please rate:
print report bad tab
1 2 3 4 5
I want to post or [tab]
guest
You may want to rate the tab now too:
select rating
Please do not post tabs as comments. Select "correction" instead!