Oops, an error
Loading. Please wait.

Bigger Boys And Stolen Sweethearts Bass Tab

version 1
version 1

Whole song

Interactive

6,647 views 6 this week
3 commentsread comments
1 2 3 4 5
x 9
add to favorites
launch autoscroll
font size
0
reset
guitar tuner
Autoscroll
slow
fast
+/-
esc
set tempo
stop
Help us to improve Ultimate-Guitar.com Take our survey!
×
intro
|-------------------------------------------------------------------|
|-------------------------------------------------------------------|
|-0-------0------0------0-------------------------------------------|
|---2-1-----2-1----2-1----2-2-1-------------------------------------|

verse 1
|-------------------------------------------------------------------|
|-------2--------------2-------------2-------------2----------------|
|-0-4-0----------0-4-0---------0-4-0---------0-4-0------------------|
|---------2-2-1----------2-2-1---------2-2-1---------2-2-1-1-1-1----|

Break
|-------------------------------------------------------------------|
|-------------------------------------------------------------------|
|-----------------------------------------5---------5---------------|
|-0----------0---------2---------2----------------------------1---1-|

Chorus
|--------------------------------------------------------------| 
|-------2-----------2-----------2-----------2------------------|
|-0-4-----4---0-4-----4---0-4-----4---0-4-----4----------------|
|--------------------------------------------------------------|

Verse 2 starts like this
|--------------------|
|--------------------|
|-------0------------|
|---------2-2-1------|
then goes back to this
|-------------------------------------------------------------------|
|-------2--------------2-------------2-------------2----------------|
|-0-4-0----------0-4-0---------0-4-0---------0-4-0------------------|
|---------2-2-1----------2-2-1---------2-2-1---------2-2-1-1-1-1----|

Break
|-------------------------------------------------------------------|
|-------------------------------------------------------------------|
|-----------------------------------------5---------5---------------|
|-0----------0---------2---------2----------------------------1---1-|

Chorus 2
|--------------------------------------------------------------| 
|-------2-----------2-----------2-----------2------------------|
|-0-4-----4---0-4-----4---0-4-----4---0-4-----4----------------|
|--------------------------------------------------------------|

Solo
|--------------------------------------------------------------| 
|------5-5--------------------5-5------------------------------|
|----7-----7----------------7-----7----------------------------|
|--5----------2-2-1-1-1---5---------2-2-1-1-1------------------|
Times 3 ^

Verse 3 (just bass and lead guitar)
|-------------------------------------------------------------------|
|-------------------------------------------------------------------|
|-0-------0------0------0-------------------------------------------|
|---2-1-----2-1----2-1----2-2-1-------------------------------------|

Extended Break (bass does not play first half)second half he plays
|-------------------------------------------------|
|-------------------------------------------------|
|-------------------5-5-5-5-5-5-5-5---------------|
|-0-0-0-0--2-2-2-2-------------------1------------|

Outro (Chorus)
|--------------------------------------------------------------| 
|-------2-----------2-----------2-----------2------------------|
|-0-4-----4---0-4-----4---0-4-----4---0-4-----4----------------|
|--------------------------------------------------------------|
Times 3 ^

And then finish with
|---------------------|
|---------------------|
|---5-5-5-5-4---------|
|-------------5-------|

have fun!!!
Suggest correction
comments
print report bad tab
3 comments total.
+1 reply
keneticshark24 135 Aug 08, 2007 09:28 AM

10/10

Excellent bass tab, keep 'em coming. :P Thanks.

0 reply
IndieJoe 1,997 Apr 11, 2009 12:40 PM

soz but it's weird timing and there you need to sort out the amount of times you play them, etc.

0 reply
buttmold 17 Jul 16, 2014 03:32 AM

All it needs is spacing to not confuse some people. Other than that, its perfect

guest
You may want to rate the tab now too:
select rating
Wanna post a correction for this tab? Suggest correction