Oops, an error
Loading. Please wait.

Bigger Boys And Stolen Sweethearts Tab

version 1
version 1

Solo

Whole song

Interactive

6,395 views 1 this week
1 commentread comment
1 2 3 4 5
x 5
add to favorites
launch autoscroll
font size
0
reset
how to read this tab
guitar tuner
Autoscroll
slow
fast
+/-
esc
set tempo
stop
Help us to improve Ultimate-Guitar.com Take our survey!
×
Guitar 1

e---------------------------|
B---------------------------|
G---------------------------|
D---------5-5-2-------------|
A-0---3---------------------|
E-----------------2-2-1-111-|
= Repeat

Guitar 2 (Lead solo bit)

(All of this is played extremely fast!)

e-----------------------------------------------------------------------|
B-----------------------------------------------------------------------|
G-----------------------------------------------------------------------|
D-----------------------------------------------------------------------|
A---0-2-3-5b-5-5b-5-5b-3-0---3-5-5b-5-3-0-5-3-5-7-5-3-5-3535-77777-5-3-0|
E-2---------------------------------------------------------------------|

(There wasnt enough space, so on this line the solo just continues)

e----------------------------------------------------------|
B----------------------------------------------------------|
G----------------------------------------------------------|
D-----------5---5-7-5--------------------------------------|
A-3-0-3-5-7---7-------7-5-3-0-303-5-7-5-3-53---5---3-7-5-0-|
E--------------------------------------------3---3---------|

(Or somthing like that, i'm not sure it's exactly right)

By iggy. = )
Suggest correction
comments
print report bad tab
1 comment total.
0 reply
amahmud 66 Apr 17, 2014 06:53 AM

|--------------------------------------|
|--------------------------------------|
|---------5---5---7b5----7-5-7-7b5-----|
|-----5-7---7----------------------7---|
|-5-7----------------------------------|
|--------------------------------------|

|------------------------------------------------------------------------------------------------------------|
|---------------------------------------------------8---8-10-8-----------------------------------------------|
|------5-7-9-7-5--7-5-7-5-9999-7-5--------5---5-7-9---9--------9-7-5--7-5-99-77-55-7-5---7--5----------------|
|-5-7-------------------------------7-5-7---7------------------------------------------5--7------------------|
|------------------------------------------------------------------------------------------------------------|
|------------------------------------------------------------------------------------------------------------|

guest
You may want to rate the tab now too:
select rating
Wanna post a correction for this tab? Suggest correction