Oops, an error
Loading. Please wait.

Bigger Boys And Stolen Sweethearts solo tab

version 2
version 2

Solo

Whole song

Interactive

197 views 6 this week
no commentswrite comment
1 2 3 4 5
3 more votes to show rating
add to favorites
×
Save as Personal and add changes to this tab that will be seen only by you. Learn more ›
×
You can save this tab as Personal to edit and correct it or add notes. All changes will be seen only by you. Learn more »
launch autoscroll
font size
0
reset
how to read this tab
guitar tuner
edit
Autoscroll
slow
fast
+/-
esc
set tempo
stop
Author
Difficulty
-------------------------------------------------------------------------------
                             Bigger Boys And Stolen Sweethearts - The Arctic Monkeys
-------------------------------------------------------------------------------
Tabbed by: Jerry Mondragon
E-mail: pokeygiygas99@gmail.com

Tuning: E-Standard

Hello guys this is my first tab and I couldn't find this solo tab anywhere else
and it would be my pleasure to upload the tab that I learned by ear. Hope you enjoy it :)
Please feel free to email if you see any errors.


PRE SOLO INTRO:

e|---------------------------------------------------------------------------|
B|---------------------------------------------------------------------------|
G|---------------------------------------------------------------------------|
D|-------5--5------------------------5--5------------------------------------|
A|----7--------7\2----------------7--------5---------------------------------|
E|--5---------------2--2--1----5---------------------------------------------|


SOLO START:

e|---------------------------------------------------------------------------|
B|---------------------------------------------------------------------------|
G|--------------5-7--5-7--7b9-5--7-5-7 7b9--5-----------5--7---7b9--7--5--7--|
D|--------5--7-----------------------------------7--5h7----------------------|
A|-----7---------------------------------------------------------------------|
E|--5------------------------------------------------------------------------|

e|---------------------------------------------------------------------------|
B|--------------------------------------------8----8-10-8--------------------|
G|-5--7--5----99999--7-5---------5---5-7---9----9----------9--7--5-----------|
D|------------------------7-5-7----7-----------------------------------------|
A|---------------------------------------------------------------------------|
E|---------------------------------------------------------------------------|

e|---------------------------------------------------------------------------|
B|---------------------------------------------------------------------------|
G|-7-5-7-----9-9-7-7-5-5-7-5------7-----5------------------------------------|
D|-----------------------------5-----7---------------------------------------|
A|------------------------------------------7--5-----------------------------|
E|-------------------------------------------------8---5---2--1--------------|


************************************

| /   slide up
| \   slide down
| h   hammer-on
| p   pull-off
| ~   vibrato
| +   harmonic
| x   Mute note
| b   Bend
| pb  Pre-bend
| br  Bend release
| pbr Pre-bend release
| brb Bend release bend

************************************

            
            
Suggest correction
Creating personal tab
Creating personal tab
You can edit any tab online and save it as your Personal.

You can edit, replace or remove any tab part or add personal notes – all changes will be seen only by you.

Personal tabs can be accessed anytime from any device, even offline.
Learn more »
Give kudos to tab author, rate the tab!
1 2 3 4 5
comments
print report bad tab
guest
You may want to rate the tab now too:
select rating
Wanna post a correction for this tab? Suggest correction