Oops, an error
Loading. Please wait.

Bigger Boys And Stolen Sweethearts Tab

version 1
version 1

Whole song

Interactive

18,398 views 3 this week
5 commentsread comments
1 2 3 4 5
x 8
add to favorites
launch autoscroll
font size
0
reset
how to read this tab
guitar tuner
×
Best way to learn
"Bigger Boys And Stolen Sweethearts"
Autoscroll
slow
fast
+/-
esc
set tempo
stop
Author
Arctic Monkeys
Bigger Boys and Stolen Sweethearts
tabbed by Ryan.c


great song by the best band around (other then the chillis)
the timming may be off at times so listen to the song to get it right.
if you got any suggestions on it just email me. chhang7@hotmail.com  


intro

|-----------------------------------------|(x4)
|-----------------------------------------|
|-14-14-14---11--14---11-11-10---10-10-10-|
|-14-14-14---11--14---11-11-10---10-10-10-|
|-12-12-12---9---12---9--9--8----8--8--8--|
|-----------------------------------------|


verse

|------------------------|
|------------------------|(repeat as much as you want)
|-14-14-14--11-11--10----|
|-14-14-14--11-11--10----|
|-12-12-12--9--9---8-----|
|------------------------|

pre-chorus 

|-------------------|
|-------------------|
|-9--11--7--10------|
|-9--11--7--10------|
|-7--9---5--8-------|
|-------------------|

Chorus

1st Guitar
|-------------------------|
|-------------------------|
|--14-14-14---7-7-7-------|
|--14-14-14---7-7-7-------|
|--12-12-12---5-5-5-------|
|-------------------------|

2nd guitar
|-----------------------------------------|
|-----------------------------------------|
|-----------------------------------------|
|-7-7-7-7-7-7--11--12-12-12-12-12-12-11---|
|-----------------------------------------|
|-----------------------------------------|

|------------------------------------|
|------------------------------------|
|------------------------------------|
|-7-7-7-7-7-7--11--12-12-12-12-12-12-|
|------------------------------------|
|------------------------------------|

|-------------------------|
|-------------------------|(repeat this bit 4 times)
|-9-9--7-7--6-6-----------|
|----------------7--------|
|-------------------------|
|-------------------------|


solo (listen to the timming to get it right) 

guitar 1
|-------------------------|
|-------------------------|
|-------------------------|
|-----5-5-----------------|
|---7-----7---------------|
|-5---------2-2-1---------|

guitar 2
|-------------------------------------------------|
|-------------------------------------------------|
|---------5---5-7--7/9\7--5--5-7-7/9\7-5----------|
|-----5-7---7----------------------------7--------|
|-5-7---------------------------------------------|
|-------------------------------------------------|

|------------------------------|
|------------------------------|
|---5-7-7/9-9-5----5-7-9-9-7-5-|
|-7--------------7-------------|
|------------------------------|
|------------------------------|


|-------------------------------------------------------------|
|-----------------8-------------------------------------------|
|---------7-5-7-9---9-7-5----5-9-9-7-7-5-5-----9-7-5----------|
|-7-7-5-7------------------7---------------7-7----------------|
|----------------------------------------------------7-5------|
|--------------------------------------------------------5-5--|


Suggest correction
comments
print report bad tab
5 comments total. Showing first comments.
0 reply
ethanole 10 Jan 31, 2006 09:59 AM

the intro is wrong, the solo also....

0 reply
chhang 573 Apr 07, 2006 11:37 AM

its pretty acurate

0 reply
Dmcg 10 Nov 26, 2006 07:59 AM

they are the greatest band exept the chilis

guest
You may want to rate the tab now too:
select rating
Wanna post a correction for this tab? Suggest correction