Oops, an error
Loading. Please wait.

Bigger Boys And Stolen Sweethearts Tab

version 2
version 2

Whole song

Interactive

36,342 views 78 this week
4 commentsread comments
1 2 3 4 5
x 18
add to favorites
launch autoscroll
font size
0
reset
how to read this tab
guitar tuner
Autoscroll
slow
fast
+/-
esc
set tempo
stop
Help us to improve Ultimate-Guitar.com Take our survey!
×
Author
Arctic Monkeys - Bigger Boys And Stolen Sweethearts

 Guitar 1 - [Intro]
e|--7-5-5-5----2-2-1-/7----|
B|--5-5-7-5----2-2-1-/5----|
G|--6---6-6----2-2-2-/6----|   x4
D|--7---7-7----4-4-3-/7----|
A|-------------------------|
E|-------------------------|

 Guitar 2 - [Intro]
e|-------------------|
B|-------------------|
G|--6--------3-3--2--|   x4
D|--7--------4-4--3--|
A|--7--------4-4--3--|
E|--5--------2-2--1--|

 Guitar 1 - [Verse]
e|--5-5-5---2-2-1-|
B|--5-5-5---2-2-1-|
G|--6-6-6---3-3-2-|
D|--7-7-7---4-4-3-|
A|----------------|
E|----------------|
  "there's always somebody..."

  Guitar 2 - [Verse]
e|--------------------|
B|--------5-----------|
G|--6-6-6-6-6---------|
D|--7-7-7---7---4-4-3-|
A|--7-7-----7---4-4-3-|
E|--5-5-----5---2-2-1-|

 Both Guitars - [Interlude / Chorus]
e|-0--x2-------------------------------5-5-5--x-7-7-7-|
B|-0--x2--7--1-------------------------5-5-5--x-7-7-7-|
G|-1--x3--7--2-------------------------6-6-6--x-7-7-7-|
D|-2--x4--7--3-------------------------7-7-7--x-7-7-7-|
A|-2--x4--5--3-------------------------7-7-7--x-5-5-5-|
E|-0--x2-----1-------------------------5-5-5--x-------|
  " they've got engaged...."          "bigger boys and..."

 [Solo]
 Guitar 2 - Backing
e|--------------------------|
B|--------------------------|
G|--------------------------|  plays through [whole solo]
D|-----5-5------------------|
A|---7-----7----------------|
E|-5-----------2-2-1--1,1/5-|

 Guitar 1 - [Solo]
e|------------/--------------------------------------------------------------------------------8-5-|
B|------------/---------------------------------------------------------------------5-8---5-8------|
G|------------/----------------5-7-5-7-7b9p5-----5-7b9b7-5-------7-5-7-5-7-5-----7b9-----7---------|
D|-7-----7----/------------5-7---------------5h7-----------7-5h7-------------5h7-------------------|
A|---7--------/----------7-------------------------------------------------------------------------|
E|------------/--------5---------------------------------------------------------------------------|

e|-------8-10b1212p10------8-----8-------|
B|-8h10---------------8h10--10-8--8h10---|
G|-------------------------------------9-|
D|---------------------------------------|   with the solo its just a case of
A|---------------------------------------|   knowing an A major scale on the
E|---------------------------------------|   5th fret n just going crazy. I
                                            tabbed the noticeable cool bits.
Guitar 1 - [Verse?]
e|--5----7-5--2-2--1-|
B|--5----5-5--2-2--1-|
G|--6----6-6--3-3--2-|
D|--7----7-7--4-4--3-|
A|-------------------|
E|-------------------|
 " what she's been doing...."

 Both Guitars - [Interlude + Variation]
e|-0----2------------2-----------------------------|
B|-0----2----7---1---0---2---7---1-------111111111-|
G|-1----3----7---2---1---3---7---2-------222222222-|
D|-2----4----7---3---2---4---7---3-------333333333-|
A|-2----4----5---3---2---4---5---3-------333333333-|
E|-0----2--------1---0---2-------1-------111111111-|
 " got engaged....."

 Both Guitars - [Chorus]
e|----5-5-5--x-7-7-7-|
B|----5-5-5--x-7-7-7-|
G|----6-6-6--x-7-7-7-|    repeat until ending
D|----7-7-7--x-7-7-7-|
A|----7-7-7--x-5-5-5-|
E|----5-5-5--x-------|
 "bigger boys and...."

  Guitar 1 - Ending
e|-13---5-|
B|-13---5-|
G|-14---6-|
D|-15---7-|
A|------7-|
E|------5-|
Phew!



************************************

| /  Slide up
| x  Dead note
| p  Pull-off
| b  Bend
| h  Hammer-on

************************************
Suggest correction
comments
print report bad tab
4 comments total. Showing first comments.
0 reply
Zuka 403 Jun 14, 2007 08:18 PM

Great job, 5 stars.

0 reply
Ryo_Sanada 10 Mar 19, 2009 12:52 AM

i think the 2234 on the verse is suppossed to be 2224

0 reply
sanko 10 Jul 06, 2009 01:12 PM

agree with ryo sanada there!great job

guest
You may want to rate the tab now too:
select rating
Wanna post a correction for this tab? Suggest correction