Oops, an error
Loading. Please wait.

Bigger Boys And Stolen Sweethearts Tab

version 3
version 3

Whole song

Interactive

3,678 views 6 this week
3 commentsread comments
1 2 3 4 5
x 4
add to favorites
launch autoscroll
font size
0
reset
how to read this tab
guitar tuner
Autoscroll
slow
fast
+/-
esc
set tempo
stop
Help us to improve Ultimate-Guitar.com Take our survey!
×
Chords: 
A 	(577655)
F# 	(244322)
F 	(133211)

E	(022100)
F#	(244322)
D	(557775)
F	(133211)

e-------------------------|
B-------------------------|
G-------------------------|
D-----5-5-2---------------|  x4
A-0-3---------------------|
E--------------22--1-111--|


A                      F#     F
There's always somebody taller
		A
With more of a wit
                       F#     F		
And he's equipped to enthrall her
			A
And her friends think he's fit
                       F#     F
And you just can't measure up no
	         A
You don't have a prayer
                       F#     F
Wishing you had made the most of her
		E
When she was there


E
They've got engaged
F#
No intention of a wedding
D
He's pinched your bird
F
And he'd probably kick your head in


A                 D
Bigger Boys and Stolen Sweethearts
A                 D
You're better off without her anyway
A                    D
You said you wasn't sad to see her go
A                 D
Oh no

A                        F#     
He might be one of those boys
   F		    A
That's all pretty and vain
                      F#     
Likes to go in the sunbed
     F	             A
And stays out of the rain
                           F#     
So that he don't get his hair wet
   F		    A
You wouldn't want that
                          F#     
At least he hasn't got a Nova
F		
Or a Burberry hat

E
They've got engaged
F#
No intention of a wedding
D
He's pinched your bird
A
And he'd probably kick your head in

A               D
Bigger Boys and Stolen Sweethearts
A                     D
You're better off without her anyway
A                    D               A
You said you wasn't sad to see her go
    D
Of course you were

guitar 1
|-------------------------|
|-------------------------|
|-------------------------|
|-----5-5-----------------| x4
|---7-----7---------------|
|-5---------2-2-1---------|

guitar 2
|-------------------------------------------------|
|-------------------------------------------------|
|---------5---5-7--7/9\7--5--5-7-7/9\7-5----------|
|-----5-7---7----------------------------7--------|
|-5-7---------------------------------------------|
|-------------------------------------------------|

|------------------------------|
|------------------------------|
|---5-7-7/9-9-5----5-7-9-9-7-5-|
|-7--------------7-------------|
|------------------------------|
|------------------------------|


|-------------------------------------------------------------|
|-----------------8-------------------------------------------|
|---------7-5-7-9---9-7-5----5-9-9-7-7-5-5-----9-7-5----------|
|-7-7-5-7------------------7---------------7-7----------------|
|----------------------------------------------------7-5------|
|--------------------------------------------------------5-5--|


A                              F#     
Have you heard what she's been doing?
F		A
Never did it for me
                         F#     F
He picks her up at the school gates
                A
At twenty past three
                         F#     
She's been with all the boys
   F       
But never went very far
A                      F#     
She wagged English and Science
 F                    
Just to go in his car


E
They've got engaged
F#
No intention of a wedding
D
He's pinched my bird
F			      E
And he'd probably kick my head in, oh
		   F#
Now the girls have grown
          D		  F
But I'm sure they still carry on in similar ways


A               D
Bigger Boys and Stolen Sweethearts
A                    D
You're better off without her anyway
A                   D               A
You said you wasn't sad to see her go
        D		          A
But I'm only pretending, you know
           D                   A
Yeah, I'm only pretending, you know
           D              A
Yeah, I'm only pretending, you know
        D                 A   
Oh I'm only pretending, you know
        D                 A 
Suggest correction
comments
print report bad tab
3 comments total.
0 reply
bobeatsbob 30 Aug 02, 2007 03:45 PM

it isnt this:
e-------------------------|
B-------------------------|
G-------------------------|
D-----5-5-2---------------|
A-0-3---------------------|
E--------------22--1-111--|

its:
e-------------------------|
B-------------------------|
G-------------------------|
D-------------------------|
A------4---7--------------|
E----5---5----2-2-1-111---|

0 reply
TheBigB 10 Aug 07, 2007 09:53 AM

F# (244322)

should be

?? (244222)

0 reply
nickdoes69 10 Dec 03, 2007 07:14 PM

its F#m not F#

guest
You may want to rate the tab now too:
select rating
Wanna post a correction for this tab? Suggest correction