Oops, an error
Loading. Please wait.

Black Treacle Tab

version 1
version 1

Whole song

Interactive

18,654 views 63 this week
3 commentsread comments
1 2 3 4 5
x 9
add to favorites
launch autoscroll
font size
0
reset
how to read this tab
guitar tuner
Autoscroll
slow
fast
+/-
esc
set tempo
stop
Help us to improve Ultimate-Guitar.com Take our survey!
×
Difficulty
novice
Guitar Chords used:

G: 320003 or 355433
D: xx0232 or 10 12 12 11 10 10
C: x32010 or 8  10 10 9  8  8
A: x02210
C: x35543
E: 022000


[Intro]

G


[Verse 1]

G D C G D C (x2)
G


[Chorus]

C  D  G (x2)
C  D  G  A  C
G  C


Guitar Tab:

e|-----------------------------------------------|
B|-----------------------------------------------|
G|-14b15-9b11rb9--9b10r9-7\4---------------------|
D|-----------------------------------------------|
A|-----------------------------------------------|
E|-----------------------------------------------|

[Verse 2]

G  D  C  G  D  C
G  D  C  G  D  C
G


[Chorus]

C  D  G (x2)
C  D  G  A  C
G  C


[Middle 8]

C  D  G
C  D  G  E
C  D  G  C
C  D

e|-----------------------------------------------|
B|-----------------------------------------------|
G|-14b15-9b11r9--9b10r9-7\4----------------------| 
D|-----------------------------------------------|
A|-----------------------------------------------|
E|-----------------------------------------------|(x3)

e|----------------------------------------------|
B|----------------------------------------------|
G|-14b15-9b11r9-9b11r9b10\7---------------------|
D|----------------------------------------------|
A|----------------------------------------------|
E|----------------------------------------------|

Guitar 2:
e|---------------------------------------------------|
B|---------------------------------------------------|
G|-0-x25---------------------------------------------|
D|-5-x25---------------------------------------------|
A|---------------------------------------------------|
E|---------------------------------------------------|


[Chorus]

e|---------------------------------------------------|
B|-------------------------12------------------------|
G|----12-14-12----14-16-14-12------------------------| 
D|-14----------16----------12------------------------|
A|---------------------------------------------------|
E|---------------------------------------------------|(x3)

e|---------------------------------------------------|
B|-10--8---------------------------------------------|
G|-9---8--0(x8)--0-0-0-0-4-4-4-4-0-0-0-0-0-0-0-0-0---|
D|-10--10-5(x8)--5-5-5-5-4-4-4-4-2-2-2-2--------/5---|
A|---------------------------------------3-3-3-3-----|
E|---------------------------------------------------|

e|-----------------------------------------------------|
B|-----------------------------------------------------|
G|-0-----0--0--0--0--0--0--0--0--0--0--0-----0--0--0---|
D|-16b17-17-17-17-17-17-17-17-17-17-17-17r16-16-16-16--|
A|-----------------------------------------------------|
E|-----------------------------------------------------|

e|-----------------------------------------------------|
B|-----------------------------------------------------|
G|-0-----0--0--0--0--0--0--0---0--0--0--0--0--0--0--0--|
D|-16b17-17-17-17-17-17-17-17rb16-16-16-16-14-14-14-14-|
A|-----------------------------------------------------|
E|-----------------------------------------------------|

e|---------------------------------------------------------------|
B|---------------------------------------------------------------|
G|-0--0--0--0--0-0-0-0-0-0-0-0-0-0-0-0-0-0-0-0-0-0-0-0-0-0-0-0-0-|
D|-14-14-14-14-9-9-9-9-9-9-9-9-7-7-7-7-7-7-7-7-5-5-5-5-5-5-5-5-5-|
A|---------------------------------------------------------------|
E|---------------------------------------------------------------|

e|----------------------------------------------------|
B|----------------------------------------------------|
G|-14b16-9b11r9-7b9r7-7b9-4b5r4-2-0-0-0-0-0-0-0-0-0---|
D|--------------------------------5-5-5-5-5-5-5-5-5---|
A|----------------------------------------------------|
E|----------------------------------------------------|


[Chorus]

[Middle 8]
                                     
e|--------------------|--------------------------|
B|--------------------|--------------------------|
G|-0-0--0-0--0-0--0-0-|-----------------0-(x16)--|
D|-5-5--5-5--5-5--5-5-|-14-(x8)-16-(x8)-17(x16)--|
A|--------------------|-15-(x8)-17-(x8)----------|
E|--------------------|--------------------------|

e|-----------------------------------------------|
B|-----------------------------------------------|
G|-----------------0-(x8)-0-(x8)-----------------|
D|-14-(x8)-16-(x8)-17(x8)-13(x8)--14(x8)-16------|
A|-15-(x8)-17-(x8)----------------15(x8)-17------|
E|-----------------------------------------------|

                                    
e|----------------------------------|--|
B|----------------------------------|--|
G|--0-0-0-0-4-4-4-4-0-0-0-0-0-0-0-0-|--|
D|--5-5-5-5-4-4-4-4-2-2-2-2---------|--|
A|--------------------------3-3-3-3-|--|
E|----------------------------------|--|(x3)

e|----------------------------------|---|
B|----------------------------------|---|
G|--0-0-0-0-4-4-4-4-0-0-0-0-0-0---0-|-0-|
D|--5-5-5-5-4-4-4-4-2-2-2-2---------|-5-|
A|--------------------------3-3---3-|---|
E|----------------------------------|---|



************************************

| r  Release
| b  Bend
| \  Slide down
| x  Dead note
| /  Slide up

************************************
Suggest correction
comments
print report bad tab
3 comments total.
0 reply
michael_1025 10 Oct 04, 2014 03:23 AM

Pretty good tabs. The format could use some tidying up though.

0 reply
SpideryMan 10 Jun 01, 2015 08:20 PM, edited at 08:25 pm

for Guitar 1 - verse 2 and middle 8 use only the barre C and D chords, and only the barre G is used, the regular G is not used at all in the song

0 reply
SpideryMan 10 Jun 02, 2015 09:23 PM

Correction, just verse 2 is barre C and D, middle 8 is regular C and D

guest
You may want to rate the tab now too:
select rating
Wanna post a correction for this tab? Suggest correction