Oops, an error
Loading. Please wait.

Black Treacle Bass Tab

version 2
version 2

Whole song

Interactive

4,035 views 1 this week
no commentswrite comment
1 2 3 4 5
x 5
add to favorites
launch autoscroll
font size
0
reset
guitar tuner
Autoscroll
slow
fast
+/-
esc
set tempo
stop
Help us to improve Ultimate-Guitar.com Take our survey!
×
Artist: Arctic Monkeys

Allbum: Suck It And See

Song: Black Treacle


Verse

G||------------------------------|------------------------------|
D||------------------------------|------------------------------|
A||------------10--10-10--12-10\-|------------10--10------------|
E||-3-3/--(10)-------------------|-3-3/--(10)--------12--10-12\-|

G||------------------------------|----------|-----------------------|
D||------------------------------|----------|-----------------------|
A||------------10--10-10--12-10\-|-5-7--5-0-|-3-3-----3--3-3-----3--|
E||-3-3/--(10)-------------------|----------|------3h5-5------3h5-5-|

G||------------------------------|--------------------|--------------------|
D||------------------------------|--------------------|--------------------|
A||------------10--10-10--12-10\-|-5-5----5--7-5----5-|-3-3----3--3-3----3-|
E||-3-3/--(10)-------------------|------5---------5---|------3---------3---|


Chorus
                         
G||------------------------||
D||------------------------||  x3
A||------------------------||
E||-3-3--3-3--3-3--3/(10)\-||

G||--------------------|--------------------||
D||--------------------|--------------------||  x1
A||-----------5-5--2---|-3-3--3-3--5-7------||
E||-3----3-3---------3-|----------------7-5-||

G||--------------------|--------------------||
D||--------------------|--------------------||  x2
A||-----------5-5--2---|-3-3--3-3--5-7------||
E||-3-3--3-3---------3-|----------------7-5-||

G||--------------------|--------------------|
D||--------------------|--------------------|
A||--------------------|--------------------|
E||-3-3--3-3--5-5--5-5-|-8------------------|

G||-----------------------|--------------------|
D||-----------------------|--------------------|
A||-10-12--10---------0-2-|-3---------6--------|
E||-----------0--2-3------|--------------------|

G||--------------------|--------------------|
D||------5-------------|--------------------|
A||----------------9---|-7-7--2\---3-5--3-2-|
E||-3-3----3--7-7------|--------------------|

G||--------------------|--------------------|
D||--------------------|--------------------|
A||--------------------|--------------------|
E||-3------------------|--------------------|


Verse 2

G||------------------------------|------------------------------|
D||------------------------------|------------------------------|
A||------------10--10-10--12-10\-|------------10--10------------|
E||-3-3/--(10)-------------------|-3-3/--(10)--------12--10-12\-|

G||------------------------------|----------|-----------------------|
D||------------------------------|----------|-----------------------|
A||------------10--10-10--12-10\-|-5-7--5-0-|-3-3-----3--3-3-----3--|
E||-3-3/--(10)-------------------|----------|------3h5-5------3h5-5-|

G||------------------------------|--------------------|--------------------|
D||------------------------------|--------------------|--------------------|
A||------------10--10-10--12-10\-|-5-5----5--7-5----5-|-3-3----3--3-3----3-|
E||-3-3/--(10)-------------------|------5---------5---|------3---------3---|

---

G||------------------------------|------------------------------|
D||------------------------------|------------------------------|
A||------------10--10-10--12-10\-|------------10--10-10---------|
E||-3-3/--(10)-------------------|-3-3/--(10)-------------------|

G||------------------------------|----------|-----------------------|
D||------------------------------|----------|-----------------------|
A||------------10--10-10--12-10\-|-5-7--5-0-|-3-3--------3-3-----3--|
E||-3-3/--(10)-------------------|----------|-----------------3h5-5-|

G||-------------------------|--------------------|-----------------------|
D||-------------------------|--------------------|-----------------------|
A||-----------------5/(10)\-|-5-5-------5-7--5-0-|-3-3-----3--3-3-----3--|
E||-3-3/-------3-3----------|--------------------|------3h5-5------3h5-5-|

G||--------------------||
D||--------------------||
A||--------------------||
E||-3-3--3-3--3-3--3-3-||


Chorus 2
                         
G||--------------------|--------------------||
D||--------------------|--------------------||  x1
A||-----------5-5--2---|-3-3--3-3--5-7------||
E||-3----3-3---------3-|----------------7-5-||

G||--------------------|--------------------||
D||--------------------|--------------------||  x2
A||-----------5-5--2---|-3-3--3-3--5-7------||
E||-3-3--3-3---------3-|----------------7-5-||

G||--------------------|--------------------|
D||--------------------|--------------------|
A||--------------------|--------------------|
E||-3-3--3-3--5-5--5-5-|-8------------------|

G||-----------------------|--------------------|
D||-----------------------|--------------------|
A||-10-12--10---------0-2-|-3---------6--------|
E||-----------0--2-3------|--------------------|

G||--------------------|--------------------|
D||------5-------------|--------------------|
A||----------------9---|-7-7--2\---3-5--3-2-|
E||-3-3----3--7-7------|--------------------|

G||--------------------|--------------------|
D||--------------------|--------------------|
A||--------------------|------------------2-|
E||-3------------------|-3-3--3-3--3-0--3---|


Outro

G||--------------------|--------------------|
D||--------------------|--------------------|
A||-3-3--3----3-2--3-7-|-5-5--5-5-----------|
E||--------3-----------|-----------7-7--5-5-|

G||--------------------|--------------------|
D||--------------------|--------------------|
A||------------------2-|------------------2-|
E||-3-3--3-3--3-0--3---|-3-3--3-3--3-0--3---|

---

G||--------------------|--------------------|
D||--------------------|--------------------|
A||-3-3--3----3-2--3-7-|-5-5--5-5-----------|
E||--------3-----------|-----------7-7--5-5-|

G||-----------------------|--------------------|
D||-----------------------|--------------------|
A||-----------10-10---9-9-|-7-7--7---------0-2-|
E||-3-3--3-3--------------|--------0--2-3------|

---

G||--------------------|--------------------|
D||--------------------|--------------------|
A||-3-3--3----3-2--3-7-|-5-5--5-5-----------|
E||--------3-----------|-----------7-7--5-5-|

G||--------------------|--------------------|
D||--------------------|--------------------|
A||------------------2-|-3-3--3----3-3--3-5-|
E||-3-3--3-3--3-0--3---|--------3-----------|

G||--------------------|--------------------|
D||--------------------|--------------------|
A||-3-3--3----3-2--3-7-|-5------------------|
E||--------3-----------|-----------7----5---|


Coda

G||--------------------|--------------------||
D||------5-------------|--------------------||  x4
A||----------------9---|-7-7-------3-5--3-2-||
E||-3---------7--------|--------------------||

G||--------------------|--------------------|---|
D||------5-------------|--------------------|---|
A||----------------9---|-7----2----3-5--3-2-|---|
E||-3---------7--------|--------------------|-3-|


tab by: Pedro Zappa
Suggest correction
comments
print report bad tab
guest
You may want to rate the tab now too:
select rating
Wanna post a correction for this tab? Suggest correction