Oops, an error
Loading. Please wait.

Brain Storm Bass Tab

version 2
version 2

Whole song

3,776 views 3 this week
no commentswrite comment
1 2 3 4 5
x 4
add to favorites
launch autoscroll
font size
0
reset
guitar tuner
Autoscroll
slow
fast
+/-
esc
set tempo
stop
Help us to improve Ultimate-Guitar.com Take our survey!
×
Difficulty
intermediate
Intro
G|----------|
D|-33333333-|
A|----------|   X16
E|----------|

Verse
G|-------------------|
D|-3-----------1-2-5-|
A|----4-3--4-4-------|  x12
E|-------------------|

Verse
G|-------------------|
D|-3-----------1-2-5-|
A|----4-3--4-4-------|  x8
E|-------------------|

Pre-Chorus
G|-------------------|
D|-------------------|
A|-3-------3-3------4|  x3
E|----4-1------1-4---|

Pre-Bridge
G|--------|
D|--------|
A|--------| 
E|-0-0-0-0|

Bridge 
G|------------------------------------|
D|33333-------1-1---0-0-------1-1---1-|
A|------1111-1-1---1-1--1111-1-1---1--| x8
E|------------------------------------|

Drums

Verse
G|-------------------|
D|-3-----------1-2-5-|
A|----4-3--4-4-------|  x4
E|-------------------|

Break....

Outro
G|--------|
D|-3-3-3-3|
A|--------|
E|--------|
Suggest correction
comments
print report bad tab
guest
You may want to rate the tab now too:
select rating
Wanna post a correction for this tab? Suggest correction