Oops, an error
Loading. Please wait.

Brainstorm Bass Tab

version 1
version 1

Whole song

Interactive

10,303 views 6 this week
1 commentread comment
1 2 3 4 5
x 8
add to favorites
launch autoscroll
font size
0
reset
guitar tuner
Autoscroll
slow
fast
+/-
esc
set tempo
stop
Help us to improve Ultimate-Guitar.com Take our survey!
×
Author
-------------------------------------------------------------------------------
			     BRAINSTORM - Arctic Monkeys
-------------------------------------------------------------------------------

Tabbed By : Kevin

Tuning: Standard

fast picking (0:00)
G|------------------------------------------------------------------|
D|------------------------------------------------------------------|x4
A|------------------------------------------------------------------|
E|-1111111111111111111111111111111111111111111111111111111111111111-|

guitar break (0:23)

(0:26)
G|-------------------------------------------|
D|-------------------------------------------|x2
A|-8--4-3---4-4-6-7--10-8--4-3---4-4-6-7--10-|
E|-------------------------------------------|

guitar break (0:38)

(0:40)
G|-------------------------------------------|
D|-------------------------------------------|x4
A|-8--4-3---4-4-6-7--10-8--4-3---4-4-6-7--10-|
E|-------------------------------------------|

fast picking (1:01)
G|1010101010----55555---666668--9999912--1010101010----55555---666668--9999912----|
D|----------11-------6-----------------------------11-------6---------------------|
A|--------------------------------------------------------------------------------|
E|--------------------------------------------------------------------------------|

G|1010101010----55555---666668--9999912--1010101010----55555---6-|
D|----------11-------6-----------------------------11-------6----|
A|---------------------------------------------------------------|
E|---------------------------------------------------------------|

(1:12)
G|-------------------------------------------|
D|-------------------------------------------|x4
A|-8--4-3---4-4-6-7--10-8--4-3---4-4-6-7--10-|
E|-------------------------------------------|

(1:35)
G|-----------------------------------------|
D|-----------------------------------------|
A|-3--------3-3------4-3--------3-3------4-|
E|----4-1-------4-1-------4-1-------4-1----|


G|-----------------------------------------|
D|-----------------------------------------|
A|-3--------3-3------4-3-(let-ring)--------|
E|----4-1-------4-1------------------------|

(1:47)
G|---------------------------------------------|
D|-----------------11-11-10-10-------11-11-10\-|
A|-8-8-8-8-8-11-11-------------11-11-----------|
E|---------------------------------------------|

G|---------------------------------|
D|---------------------------------|
A|---------------4-4-3-3-----4-4-3-|
E|-1-1-1-1-1-4-4---------4-4-------|

G|---------------------------------------------|
D|-----------------11-11-10-10-------11-11-10\-|
A|-8-8-8-8-8-11-11-------------11-11-----------|
E|---------------------------------------------|

G|---------------------------------|
D|---------------------------------|
A|---------------4-4-3-3-----4-4-3-|
E|-1-1-1-1-1-4-4---------4-4-------|

G|-------------------------------------|
D|-----------------11\-----------------|x3
A|-8-8-8-8-8-11-11-----4-3-3-----4-4-3-|
E|---------------------------4-4-------|

G|---------------------------------------|
D|-----------------11\------------/11-10-|
A|-8-8-8-8-8-11-11-----4-3-3-------------|
E|---------------------------4-4---------|

drum + vocal break (2:11)

(2:22)
G|-------------------------------------------|
D|-------------------------------------------|x2
A|-8--4-3---4-4-6-7--10-8--4-3---4-4-6-7--10-|
E|-------------------------------------------|

pause (2:34)

fast picking (2:37)
G|------------------------------------------------------------------|
D|------------------------------------------------------------------|x2
A|------------------------------------------------------------------|
E|-1111111111111111111111111111111111111111111111111111111111111111-|

| /  slide up
| \  slide down
| h  hammer-on
| p  pull-off
| ~  vibrato
| +  harmonic
| x  Mute note
===============================================================================
Suggest correction
comments
print report bad tab
1 comment total.
0 reply
jacque2001 10 Aug 14, 2013 01:25 PM

Great tab, very accurate!

guest
You may want to rate the tab now too:
select rating
Wanna post a correction for this tab? Suggest correction