Oops, an error
Loading. Please wait.

Brianstorm bass

version 1
117,053 views 138 this week
8 commentsread comments
1 2 3 4 5
x 50
add to favorites
×
Save as Personal and add changes to this tab that will be seen only by you. Learn more ›
×
You can save this tab as Personal to edit and correct it or add notes. All changes will be seen only by you. Learn more »
launch autoscroll
font size
0
reset
guitar tuner
backing track
0:00
0:00
edit
Autoscroll
slow
fast
+/-
esc
set tempo
stop
Author
[Intro Part 1 and Outro]

G|----------|  0-23 
D|----------|  2.36-the end
A|8-8-88-8-9|
E|----------|

this is the same as the power chords turner plays between and after the bass
solos(break and bridge breakdown) except this is an octave lower obviously and not chords.


[Main Riff]

(Intro Part 2, Verses/Chorus)

G|--------------------| 26-37
D|--------------------| 40-1.01
A|8--4-3--4-4--6-7--10| 1.12-1.35
E|--------------------| 2.22-2.33                  


[Bass Tremolo]

G|1010101010-655555--66666-88888-9-12| 1.01-1.11
D|-----------------6-----------------|
A|-----------------------------------|
E|-----------------------------------|


[Bridge]

G|-------------------|
D|-------------------| 1.36-1.44
A|3-------3-3------4-|
E|---4-1-------3-1---|
same rhythm as the main riff.

G|----------------|
D|----------------| 1.45-1.47
A|----------------|
E|0000000000000000|


[Bass Solo]

G|-----------------------------|
D|----------1111-1010----111110| 1.47-1.50
A|88888-1111---------1111------| 1.53-1.56
E|-----------------------------|
 11s and 10s not 1s and 0s.


[Break]

G|------------------|
D|------------------| 1.50-1.53
A|--------44-33--443| 1.56-1.59
E|11111-44-----44---|

Then bass solo again
 
Then play break again x 1.


[Bridge Breakdown]

G|------------------|
D|33333-66----------| 1.59-2.10
A|--------44-33--443|
E|-------------44---|

 Last bit just before drum verse
 Ive put two alternatives down because im not too sure you choose which is best.
G|---------|
D|3/11-11\8| 2.10-2.11
A|---------|
E|---------|

11s
G|-------|
D|1111-10|
A|-------|
E|-------|
11s and 10



************************************

| /  Slide up
| \  Slide down

************************************


            
            
Suggest correction
Creating personal tab
Creating personal tab
You can edit any tab online and save it as your Personal.

You can edit, replace or remove any tab part or add personal notes – all changes will be seen only by you.

Personal tabs can be accessed anytime from any device, even offline.
Learn more »
comments
print report bad tab
8 comments total. Showing first comments.
+4 reply
bearded_monkey 101 Aug 04, 2008 11:43 AM

Cool stuff

+4 reply
RDokz 61 Jan 26, 2009 09:48 AM

thats genius, well done

+3 reply
IndieJoe 1,997 Feb 20, 2009 06:32 AM

well done man :D
how many times did you watch the live videos of this song on youtube ;) haha
nah great work. top notch :D

guest
You may want to rate the tab now too:
select rating
Wanna post a correction for this tab? Suggest correction