Oops, an error
Loading. Please wait.

Brianstorm bass

version 2
11,980 views 9 this week
4 commentsread comments
1 2 3 4 5
x 8
add to favorites
×
Save as Personal and add changes to this tab that will be seen only by you. Learn more ›
×
You can save this tab as Personal to edit and correct it or add notes. All changes will be seen only by you. Learn more »
launch autoscroll
font size
0
reset
guitar tuner
backing track
0:00
0:00
edit
Autoscroll
slow
fast
+/-
esc
set tempo
stop
Author
-----------------------------------------------------------------------------
			     Brianstorm - Arctic Monkeys
-----------------------------------------------------------------------------

Tabbed By : Duffboyyuk
e-mail: Duffboyyuk@hotmail.com

Tuning: Standard (EADG)

Intro/Outro x6 (NOte: Its Not 11, But 1-1 really quickly)
G|-----------------------------------------------|
D|-----------------------------------------------|
A|-----------------------------------------------|
E|-1-1111-1-1111-1-1111-1-1111-1-1111------------|

Verse
G|-----------------------------------------------|
D|-3--------------2--5---3--------------1-2-5----|
A|----4-3--4-4--4-----------4-3--4-4--4----------|
E|-----------------------------------------------|

Pre-Chorus
G|-----------------------------------------------|
D|-----------------------------------------------|
A|-3-------3-3------4---3-------3-3-------4------|
E|----4-1------1-4---------4-1------1-4----------|

Before Bridge
G|-----------------------------------------------|
D|-----------------------------------------------|
A|-----------------------------------------------|
E|-0-0-0-0---------------------------------------|


Bridge (Because Of The Distortion I Am Not Sure Which Octave This Is Played On, But I 
Its Played High On Its Own And Low When The Guitars Come In, So I Have Tabbed Both!)
"Bass Break"
G|---------------6-5-------6-5-------------------|
D|-3-3-3-3-3-6-6-----5---6-----6-(5)-------------|
A|---------------------8-------------------------|
E|-----------------------------------------------|

Guitars In
G|-----------------------------------------------|
D|-----------------------------------------------|
A|---------------4-3-------4-3-------------------|
E|-1-1-1-1-1-4-4-----3-1-4-----4-(3)-------------|

Order
Intro
Verse
Pre-Chorus
Verse
Before Bridge
Bass Break/Interlude
Verse
Intro

| /  slide up
| \  slide down
| h  hammer-on
| p  pull-off
| ~  vibrato
| +  harmonic
| x  Mute note

Comments, Complanits Or Queries, Just E-Mail Me!!
=============================================================================

            
            
Suggest correction
Creating personal tab
Creating personal tab
You can edit any tab online and save it as your Personal.

You can edit, replace or remove any tab part or add personal notes – all changes will be seen only by you.

Personal tabs can be accessed anytime from any device, even offline.
Learn more »
comments
print report bad tab
4 comments total. Showing first comments.
+2 reply
skippy_moogoose 111 Mar 28, 2007 02:40 PM

seems a good tab, have only roughly played it through accoustically, so will vote in the morning when i can plug in and play

but like i said, seems a good tab, nice one :P

0 reply
Burnzoid 10 Jun 27, 2007 05:54 AM

The verse is wrong, it goes like this:

G|-----------------------------------------------|
D|-3--------------2--5---3--------------1-2-5----|
A|----4-3--4-4--5-----------4-3--4-4--5----------|
E|-----------------------------------------------|

+1 reply
zomboy 10 Mar 24, 2008 07:05 AM

Wow... Burnzoid... You corrected one note :O I'm so impressed. ¬_¬

guest
You may want to rate the tab now too:
select rating
Wanna post a correction for this tab? Suggest correction