Oops, an error
Loading. Please wait.

Brianstorm Tab

version 4
version 4
5,052 views 1 this week
1 commentread comment
1 2 3 4 5
accurate
x 3
add to favorites
launch autoscroll
font size
0
reset
how to read this tab
guitar tuner
Autoscroll
slow
fast
+/-
esc
set tempo
stop
Help us to improve Ultimate-Guitar.com Take our survey!
×
Author
Tabbers playing skills
beginner
Guitar 1 - Jaime Cook
Guitar 2 - Alex Turner

This tab was made from a mixture of videos and my own interpretation.  If you find 
you think sounds better then play it that way, this is the best I could do.

Intro:
Guitar 1:
e|-----------------|
B|-----------------|
G|-----------------|
D|33333333333333333|
A|33333333333333333|
E|11111111111111111|

Guitar 2:
e|----------------------------------|
B|----------------------------------|
G|1010101010101010101010101010101010|
D|1010101010101010101010101010101010|
A|8-8-8-8-8-8-8-8-8-8-8-8-8-8-8-8-8-|
E|----------------------------------|

e|--------------|
B|--------------|
G|--------------|
D|333333333333--|
A|------------44-|
E|---------------|

e|-----------------------------------|
B|-----------------------------------|
G|-----------------------------------|
D|444444433------------------------5-|
A|---------4433333-----444446677777--|
E|----------------44444--------------|

Verse 1:
Guitar 1:
e|---------------------|
B|---------------------|
G|---------------------|
D|15-1110-1111-1314-17-|
A|15-1110-1111-1314-17-|
E|13-9-8--9-9--1112-15-|

Guitar 2:
e|---------------|
B|---------------|
G|10-65-66-89-12-|
D|10-65-66-89-12-|
A|8--43-44-67-10-|
E|---------------|

Interlude:
e|XXXXXXX
B|XXXXXXX
G|XXXXXXX
D|XXXXXXX
A|XXXXXXX
E|XXXXXXX

Verse 2:
Guitar 1:
e|---------------------|
B|---------------------|
G|---------------------|
D|15-1110-1111-1314-17-|
A|15-1110-1111-1314-17-|
E|13-9-8--9-9--1112-15-|

Guitar 2:
e|---------------|
B|---------------|
G|10-65-66-89-12-|
D|10-65-66-89-12-|
A|8--43-44-67-10-|
E|---------------|

Guitar 1:
e|------------------------------------|
B|------------------------------------|
G|171717171717171717171717------------|
D|------------------------20-18-17-18-|
A|------------------------------------|
E|------------------------------------|

Guitar 2:
e|---------------|
B|---------------|
G|10-65-66-89-12-|
D|10-65-66-89-12-|
A|8--43-44-67-10-|
E|---------------|

Bridge:
Guitar 1:
e|-------------------------------------------------|
B|-------------------------------------------------|
G|-------------------------------------------------|
D|101010101010101010101010-171717171717171717171717|
A|101010101010101010101010-171717171717171717171717|
E|8-8-8-8-8-8-8-8-8-8-8-8--151515151515151515151515|

Guitar 2:
e|-------------------------------------|
B|-------------------------------------|
G|555555555555-101010101010101010101010|
D|555555555555-101010101010101010101010|
A|333333333333-8-8-8-8-8-8-8-8-8-8-8-8-|
E|-------------------------------------|

Bridge 2:
Guitar 1:
e|-----------------|
B|-----------------|
G|-----------------|
D|33333333333333333|
A|33333333333333333|
E|11111111111111111|

Guitar 2:
e|------------------|
B|------------------|
G|10-10-10-10-10-11-|
D|10-10-10-10-10-11-|
A|8--8--8--8--8--9--|
E|------------------|

Verse 3:
Guitar 1:
e|------------------------------------|
B|------------------------------------|
G|171717171717171717171717------------|
D|------------------------20-18-17-18-|
A|------------------------------------|
E|------------------------------------|

Guitar 2:
e|---------------|
B|---------------|
G|10-63-66-89-12-|
D|10-63-66-89-12-|
A|8--45-44-67-10-|
E|---------------|

Outro:
Guitar 1:
e|-----------------|
B|-----------------|
G|-----------------|
D|33333333333333333|
A|33333333333333333|
E|11111111111111111|

Guitar 2:
e|--------------|
B|--------------|
G|--------------|
D|333333333333--|
A|------------44-|
E|---------------|
Suggest correction
Give kudos to tab author, rate the tab!
1 2 3 4 5
comments
print report bad tab
1 comment total.
0 reply
cachuchis 118 wrote on September 8 2009, 09:22 pm

definetively your brain isnt right

guest
You may want to rate the tab now too:
select rating
Wanna post a correction for this tab? Suggest correction