Oops, an error
Loading. Please wait.
We have an official Brick By Brick tab made by UG professional guitarists. Check out the tab »
×

Brick By Brick tab

version 3
version 3

Whole song

  • It's pretty hard to both listening and observing A... Show more

Interactive

271 views 3 this week
1 commentread comment
1 2 3 4 5
1 last vote to show rating
add to favorites
×
Save as Personal and add changes to this tab that will be seen only by you. Learn more ›
×
You can save this tab as Personal to edit and correct it or add notes. All changes will be seen only by you. Learn more »
launch autoscroll
font size
0
reset
how to read this tab
guitar tuner
edit
Autoscroll
slow
fast
+/-
esc
set tempo
stop
Author
Difficulty
intermediate
About this tab version
It's pretty hard to both listening and observing Alex's hand. And all the other tabs are just for Jamie's part. Maybe i'll fix Don't Sit Down next. Was this info helpful? Yes No
-------------------------------------------------------------------------------
                             Brick By Brick - Arctic Monkeys
-------------------------------------------------------------------------------
Tabbed by:The Bum
E-mail:Spiders2802@gmail.com
I had to watch many recording of the concerts to find the right way, but there are no guarantees that
 it is 100% accurate. Guitar 1 is Alex's and guitar 2 is Jamie's.

Tuning:
Guitar 1 
From start to " I gonna reconstruct"          "I wanna fill your love / rock 'n roll"
e|-------------------------------------------|-----------------------------------------------------|
B|-------------------------------------------|-----------------------------------------------------|
G|-----------------9-------------------------|-----------------------------------------------------|    
D|----7----5---5|--9-------------------------|-----7----5----5|------------------------------------|
A|----7----5---5|--7-------------------------|-----7----5----5|------------------------------------|
E|----5----3---3|----------------------------|-----5----3----3|------------------------------------|
Guitar 2
Same lyrics part as above
e|-------------------------------------------|-----------------------------------------------------|
B|-------------------------------------------|-----------------------------------------------------|
G|-------------------------------------------|-----------------------------------------------------|
D|----2----5---5|--2-------------------------|-----2----5----5|------------------------------------|
A|----2----5---5|--2-------------------------|-----2----5----5|------------------------------------|
E|----0----3---3|--0-------------------------|-----0----3----3|------------------------------------|

  "Brick By Brick" 
e|-------------------------------------------|   |-------------------------------------------------|
B|-------------------------------------------|   |-------------------------------------------------|
G|-------------------------------------------|3x |-------------------------------------------------| 2x
D|--7|---5|--5--2|---------------------------|   |---7---5---2|------------------------------------|
A|--7|---5|--5--2|---------------------------|   |---7---5---2|------------------------------------|
E|--5|---3|--3--0|---------------------------|   |---5---3---0|------------------------------------|

e|-------------------------------------------|   |-------------------------------------------------|
B|---8|---10------8|---10------8-------------|   |---10--8-----------------------------------------|
G|------------9------------9--------9|-------|3x |-----------9|------------------------------------| 2x
D|-------------------------------------------|   |-------------------------------------------------|
A|-------------------------------------------|   |-------------------------------------------------|
E|-------------------------------------------|   |-------------------------------------------------|
 

e|-------------------------------------------------------------------------------------------------|
B|-------------------------------------------------------------------------------------------------|
G|-------------------------------------------------------------------------------------------------|
D|---7------------------------------(7)---(5)------------------------------------------------------|
A|---7---9--8--7--6--5--4--3--------(7)---(5)------------------------------------------------------|
E|---5------------------------------(5)---(3)------------------------------------------------------|

e|-------------------------------------------|
B|--10---12--11--10--9--8--7--6--------------|
G|-------------------------------------------|
D|-------------------------------------------|
A|-------------------------------------------|
E|-------------------------------------------|

 Solo 1 (Jamie still plays the first riff through the solo)
e|--------------------------------------------------------------------------------------------------|
B|-------10b12|--------8h10p8---8--///17~---17~-/12~---8/10\8/10/12\10\8--5\3-----------------------|
G|----------------------------9---------------------------------------------------------------------|
D|------------------------------------------------------------------------------2-5-/7--2~----------|
A|--------------------------------------------------------------------------------------------------|
E|--------------------------------------------------------------------------------------------------|
 Solo 2 (Everything is slowed down)
e|--------------------------------------------------------------------------------------------------|
B|----------------------------------15br17-12~------------------------------------------------------|
G|---//9~-9~--9~--\2~-------------------------13~--12~\\--------------------------------------------|
D|-----------------------------------------------------------(7)-7br9-------------------------------|
A|----------------------5/7\5/7\5------------------------------------------------5br7---------------|
E|--------------------------------------------------------------------------------------------------|

Outro
e|-------------------------------------------|
B|-------------------------------------------|
G|-------------------------------------------|    
D|----2----5---------------------------------|
A|----2----5---------------------------------|
E|----0----3---------------------------------|

e|-------------------------------------------|
B|-------------------------------------------|
G|-------------------------------------------|    
D|----2----5---------------------------------|
A|----2----5---------------------------------|
E|----0----3---------------------------------|
Throughout the song, just repeat the riffs with different speeds at different parts. The solos are the
Guitar 1's parts, so be careful with the leading.
************************************

| /   slide up
| \   slide down
| h   hammer-on
| p   pull-off
| ~   vibrato
| +   harmonic
| x   Mute note
| b   Bend
| pb  Pre-bend
| br  Bend release
| pbr Pre-bend release
| brb Bend release bend

************************************

            
            
Suggest correction
Creating personal tab
Creating personal tab
You can edit any tab online and save it as your Personal.

You can edit, replace or remove any tab part or add personal notes – all changes will be seen only by you.

Personal tabs can be accessed anytime from any device, even offline.
Learn more »
Give kudos to tab author, rate the tab!
1 2 3 4 5
comments
print report bad tab
1 comment total.
0 reply
marqiss 308 Jan 13, 2017 10:02 AM

Yeah! this is the right one, i was about to tab it but just wanna check on the versions to be sure, just one thing, the E5 Alex plays in this way

075xxx not thie way x799xx

Cheers!

guest
You may want to rate the tab now too:
select rating
Wanna post a correction for this tab? Suggest correction