Oops, an error
Loading. Please wait.

Catapult Tab

version 1
version 1

Intro

Whole song

Interactive

2,054 views 1 this week
no commentswrite comment
1 2 3 4 5
please rate
add to favorites
launch autoscroll
font size
0
reset
how to read this tab
guitar tuner
Autoscroll
slow
fast
+/-
esc
set tempo
stop
Help us to improve Ultimate-Guitar.com Take our survey!
×
Author
Difficulty
novice
-------------------------------------------------------------------------------
                Arctic Monkeys - Cornerstone B-Side - Catapult
-------------------------------------------------------------------------------

v - downstrum
^ - upstrum

Intro:

e|--0-0--x-0-0-0-------------------------------------------------------------|
B|--1-1--x-0-0-0-------------------------------------------------------------|
G|--2-2--x-2-2-2-------------------------------------------------------------|
D|--2-2--x-2-2-2-------------------------------------------------------------|
A|--0-0--x-0-0-0-------------------------------------------------------------|
E|--0-0--x-0-0-0-------------------------------------------------------------|
    v v  v ^ v ^
Suggest correction
Give kudos to tab author, rate the tab!
1 2 3 4 5
comments
print report bad tab
guest
You may want to rate the tab now too:
select rating
Wanna post a correction for this tab? Suggest correction