Oops, an error
Loading. Please wait.

Catapult Tab

version 1
version 1

Whole song

Interactive

13,304 views 15 this week
no commentswrite comment
1 2 3 4 5
accurate
x 5
add to favorites
launch autoscroll
font size
0
reset
how to read this tab
guitar tuner
Autoscroll
slow
fast
+/-
esc
set tempo
stop
Help us to improve Ultimate-Guitar.com Take our survey!
×
Author
First heard it today. and im already in love with it:P.
maybe not 100% accurate. but close enough:)
Enjoy!

Verse:
E|-------------------------------------------------------|
B|---5----5----------------------------------------------|
G|---5----4----------------------------------------------|
D|---7----7----------------------------------------------|
A|-------------------------------------------------------|
E|-------------------------------------------------------|

Chorus is Dm, Am, Em, Am and then tht end chord b4 2nd verse is A#

Riff:
A|--5-5-5-5-7-5------------------------------------|
E|--------------8--5-5--5-5-7-5-3-0-0--0-0-0-3-5-5-|


Solo:
E|---------------------------------------------------------------------|
B|---------------------------------------------------------------------|
G|---------------------------------------------------9-7---------------|
D|-7-9-10--9-7-9-7--------12-9-10-----------10-9--10-----10-7-10-9-----|
A|-----------------7-5-7----------8-7-5----------------------------6b7-|
E|--------------------------------------8-7----------------------------|


E|-------------------------------------------------------------------------|
B|-------------------------------------------------------------------------|
G|-5-8b----5---5---9h10p9--7-9-5--9s13-16-14-9-13-14-16-14-9-13-16b-14-16b-|
D|-------7---7-------------------------------------------------------------|
A|-------------------------------------------------------------------------|
E|-------------------------------------------------------------------------|


G|--9-13-14--16-9-14-16-10-9----------

Bridge: F, G, Am F,Dm,G, G#5
Suggest correction
comments
print report bad tab
guest
You may want to rate the tab now too:
select rating
Wanna post a correction for this tab? Suggest correction