Oops, an error
Loading. Please wait.

Choo Choo Tab

version 1
version 1

Whole song

Interactive

22,737 views 12 this week
5 commentsread comments
1 2 3 4 5
x 11
add to favorites
launch autoscroll
font size
0
reset
how to read this tab
guitar tuner
Autoscroll
slow
fast
+/-
esc
set tempo
stop
Help us to improve Ultimate-Guitar.com Take our survey!
×
BY THE BULKS GUITARISTS OLLY STUBBINGS,DARCY BUM

VERSE riff guitar 1         guitar 2

e--------------             e---9-9------|
B--------------             B---9-9------|
G--------------             G---9-9------|
D--------------             D------------|
A-9-7-9-7------             A------------|
E--------9-7-9-             E------------|


BRIDGE (POWERCHORDS)X2
     X3          THEN               X1
e----------------    e---------------------------------|
B----------------    E---------------------------------|
G----------------    G---------------------------------|
D-11-11-11-11-11-    D-11-11-11-11-9-9-9-9-11-11-11-11-|
A-11-11-11-11-11-    A-11-11-11-11-9-9-9-9-11-11-11-11-|
E-9--9--9--9--9--    E-9--9--9--9--7-7-7-7-9--9--9--9--|


CHORUS riff

e----------------------|
B----------------------|
G----------------------|
D----------------------|
A-------9-7--777-7-----|
E-7-7-10----------10-9-|


AFTER CHORUS SHORT SOLO

e----------------------------|
B----------------------------|
G-------------------7s-------|
D-----------------7s---------|
A--7-9-10-9b-7b-7s----7s-----|
E-7--------------------------|
Suggest correction
comments
print report bad tab
5 comments total. Showing first comments.
0 reply
dave_mullen 249 Oct 11, 2005 04:23 AM

e--------------
B--------------
G--------------
D--------------
A-9-7-8-7------
E--------9-7-9-

This is the proper way to play the intro.
hit the 9-7 then the 8-7

+2 reply
reeve_is_god 10 Oct 12, 2005 08:53 AM

MR. S. THIS TAB IS SHOCKING,GO AND BUY THE BOOK CALLED 'GUITARS FOR DUMMYS'

0 reply
Rocker Dan 10 Jan 28, 2006 04:27 PM

SHUT UP YOU USELESS PIECE OF ALGEABRA!!!!!!!!
STUPUID BOY!




































































(sorry mate!)

guest
You may want to rate the tab now too:
select rating
Wanna post a correction for this tab? Suggest correction