Oops, an error
Loading. Please wait.

Choo Choo Tab

version 4
version 4

Whole song

Interactive

1,009 views 3 this week
no commentswrite comment
1 2 3 4 5
please rate
add to favorites
launch autoscroll
font size
0
reset
how to read this tab
guitar tuner
Autoscroll
slow
fast
+/-
esc
set tempo
stop
Help us to improve Ultimate-Guitar.com Take our survey!
×
Author
Ana_5 164
------------------------------------------------------------------------------ 
                                Choo Choo - Arctic Monkeys
------------------------------------------------------------------------------ 
Tabbed by: Ana_5 
Email: ldj.ana@gmail.com 

Tuning: Standart

This is only 'guitar 2' 

                                           x28
e|----------------------------------------|
B|----------------------------------------| 
G|----------------------------------------| 
D|----------------------------------------| 
A|--------------------------9-7-8-7-------| 
E|-----------------14\----9---------9-7---| 

                             x4
e|---------------------------|-----------------------------------------|
B|---------------------------|-----------------------------------------|
G|---------------------------|-----------------------------------------|
D|---------------------------|-----------------------------------------|
A|---------9--7-777-9-7------|---------7-9-9-9b-7~------(slides)-------|
E|--9-9-----------------9-7--|-9---7h9---------------------------------|

                            x4                         
e|---------------------------|------------------------|
B|---------------------------|------------------------|
G|---------------------------|------------------------|
D|---------------------------|------------------------|
A|---------9--7-777-9-7------|---------------(slides)-|
E|--9-9-----------------9-7--|-9----9----9------------|

e|------------------------------------------------------| 
B|------------------------------------------------------| 
G|------------------------------------------------------|
D|------------------------------------------------------| 
A|---7-9-10-11---7-9-10-11---8-7-8--------------7-------|
E|-9-----------9-----------9-------9-7-9--9-7-9---9-7-9-|

e|---------------------------------------------------------------| 
B|---------------------------------------------------------------| 
G|------------------9-11b-11-9---------9-11-9-11-9-11b-11b-11b-9-| 
D|-------------9-11------------11-9-11---------------------------| 
A|---7-9-10-11---------------------------------------------------| 
E|-9-------------------------------------------------------------| 

e|---------------------------------------------------------| 
B|---------------------------------------------------------| 
G|-------11-9-------9-11-11b-11b-11b-9--11-9--------9------| 
D|-11-11-11-9--9h11-------9b--9b--9b-9------11-9-11--------| 
A|-11-11-9--7----------------------------------------11~---| 
E|-9--9----------------------------------------------------| 

e|--------------------------------------------------------| 
B|--------------------------------------------------------| 
G|------------------------9-11b-11-9------9----------9----| 
D|-------------------9-11------------9h11---11--9h11---11-| 
A|-9-7-9-7-9-99-9/11--------------------------------------| 
E|--------------------------------------------------------| 

e|---------------------------------------------------------|
B|---------------------------------------------------------|
G|-----------------------------------------------9---------|
D|--------------------------------------11-11-11---11-9-11-|
A|---------9--7-777-9-7------------9--7--------------------|
E|--9-9-----------------9-7-9-9----------------------------|


| / slide up 
| \ slide down 
| h hammer-on 
| p pull-off 
| ~ vibrato 
| + harmonic 
| x Mute note 
===============================================================================
Suggest correction new What's this?
You can suggest a correction to this tab. Community and Mods will review your correction and vote to approve or reject it.
comments
We did not receive enough feedback on this tab! Please rate:
print report bad tab
1 2 3 4 5
guest
You may want to rate the tab now too:
select rating
Please do not post tabs as comments. Select "correction" instead!