Oops, an error
Loading. Please wait.

Cigarette Smoke Tab

version 2
version 2

Whole song

Interactive

38,690 views 60 this week
5 commentsread comments
1 2 3 4 5
excellent!
x 20
add to favorites
launch autoscroll
font size
0
reset
how to read this tab
guitar tuner
Tab Pro tools
  • play this tab
  • loop segment
  • change instrument
  • show fretboard
  • metronome
×
Best way to learn
"Cigarette Smoke"
Autoscroll
slow
fast
+/-
esc
set tempo
stop
Contributor
INTRO

   A5     A5     A5    A5     D5

e--------------------------------|
B--------------------------------|
G-----------------------------7b-|  x3
D-7-7-7--7-7-7--7-7-7--7-7-7--7b-|
A-7-7-7--7-7-7--7-7-7--7-7-7--5b-|
E-5-5-5--5-5-5--5-5-5--5-5-5-----|


IN BETWEEN EACH OF THESE THREE A CHORDS DO EACH LICK IN ORDER THEN PLAY THE FINAL ONE AS 
D5 CHORD IS PLAYED

e|---------------------------------------------------------------|
B|---------------------------------------------------------------|
G|------5b-----------7b-----------5-7-------7b-5-----------------|
D|--5-7----------5-7----------5-7----------------7---------------|  x2
A|---------------------------------------------------------------|
E|---------------------------------------------------------------|


start this on the second time of the chord progression at the start

VERSE

  A5      A5     F5     D5
e----------------------------|
B----------------------------|
G----------------------7-7-7-|x4
D-7-7-7--7-7-7--3-3-3--7-7-7-|
A-7-7-7--7-7-7--3-3-3--5-5-5-|
E-5-5-5--5-5-5--1-1-1--------|

CHORUS
A5
Cigarette smoke yeah
C5                     E5
The cigarette smoke in your eyes
E5    D5  E5   G5  E5   D5
Watch-ing a   stri-pper and
A5
Smacking a bloke yeah
C5                    E5
Smacking a bloke here tonight

E5    D5  E5   G5  E5   D5

BRIDGE

basically the chorus but faster strummin

   A5        C5      D5
e|----------------------------------------------------|
B|----------------------------------------------------|
G|-222222--555555--999999999999999999-----------------|
D|-222222--555555--999999999999999999-----------------|
A|-000000--333333--777777777777777777-----------------|
E|----------------------------------------------------|
                       E D E G E D
    A5       C5    E5  5 5 5 5 5 5
e|------------------- ----------------------------|
B|------------------- ----------------------------|
G|-222222--555555--9- -9-7-9-12-9-7---------------|
D|-222222--555555--9- -9-7-9-12-9-7---------------|
A|-000000--333333--7- -7-5-7-10-7-5---------------|
E|------------------- ----------------------------|

strumming is approximated

OUTRO

e------------------     e-------|
B------------------     B-------|
G-9-7-9-12-9-7----- X4  G--2----|
D-9-7-9-12-9-7-----     D--2----|
A-7-5-7-10-7-5-----     A--0----|
E------------------     E-------|


ORDER

intro
verse
chorus
intro
verse
chorus
verse (progession twice just bass no guitar)
bridge
chorus
chorus(leads into outro)
outro

CHORDS

A5 X022XX/755XXX
C5 X355XX
D5 X755XX
E5 X799XX
F5 133XXX
G5 X101212XX

THIS SONG IS BRILLIANT N SO R ARCTIC MONKEYS
comments
print report bad tab
5 comments total. Showing first comments.
0 reply
green_day9 wrote on December 18 2005, 03:42 am

;') way better than the other 1... i like the 2nd guitar but i link them 2 1

0 reply
jokefeat wrote on February 24 2008, 04:54 pm

good tab thanks

+2 reply
joey eat world wrote on December 2 2009, 01:58 pm

good tab except

e|---------------------------------------------------------------|
B|---------------------------------------------------------------|
G|------5b-----------7b-----------5-7-------7b-5-----------------|
D|--5-7----------5-7----------5-7----------------7---------------| x2
A|---------------------------------------------------------------|
E|---------------------------------------------------------------|


should be

e|---------------------------------------------------------------|
B|---------------------------------------------------------------|
G|------5b-----------7b-----------5h7-------7b-5-----------------|
D|--5h7----------5h7----------5h7--------------------------------| x2
A|---------------------------------------------------------------|
E|---------------------------------------------------------------|

I want to post or [tab]
guest
You may want to rate the tab now too:
select rating
Please do not post tabs as comments. Select "correction" instead!