Oops, an error
Loading. Please wait.

Cigarette Smoker Fiona Tab

version 1
version 1

Whole song

Interactive

24,077 views 24 this week
3 commentsread comments
1 2 3 4 5
accurate
x 8
add to favorites
launch autoscroll
font size
0
reset
how to read this tab
guitar tuner
Tab Pro tools
  • play this tab
  • loop segment
  • change instrument
  • show fretboard
  • metronome
×
Best way to learn
"Cigarette Smoker Fiona"
Autoscroll
slow
fast
+/-
esc
set tempo
stop
Contributor
-------------------------------------------------------------------------------
                             Cigarette Smoker Fiona - Arctic Monkeys
-------------------------------------------------------------------------------
Tabbed by: San Miguel
Email: sanmiguel1@gmail.com

Tuning: Standard
Intro:
Guitar 1

e|---------------------------------------------------------------------------|
B|---------------------------------------------------------------------------|
G|---------------------------------------------------------------------------|
D|-7-7-7---7-7-7---7-7-7---7-7-7s14------------------------------------------|
A|-7-7-7---7-7-7---7-7-7---7-7-7s14------------------------------------------|
E|-5-5-5---5-5-5---5-5-5---5-5-5s12------------------------------------------|x3

Guitar 2(after guitar 1 has played though once)
e|-----------------------------------------------------------------------------|
B|-----------------------------------------------------------------------------|
G|---5----5-7/------5-7--------------------------------------------------------|
D|-7----7--------5-7------9s7s5------------------------------------------------|
A|-----------------------------------------------------------------------------|
E|-----------------------------------------------------------------------------|x2

Verse 1
e|---------------------------------------------------------------------------|
B|---------------------------------------------------------------------------|
G|----------------------7-7-7------------------------------------------------|
D|-7-7-7--7-7-7--3-3-3--7-7-7------------------------------------------------|
A|-7-7-7--7-7-7--3-3-3--5-5-5------------------------------------------------|
E|-5-5-5--5-5-5--1-1-1-------------------------------------------------------|x4

Chorus:
Guitar 1                                          |----------------------------|
e|-----------------------------------------------------------------------------|
B|-----------------------------------------------------------------------------|
G|-----------------5-5-5-5-5-5-5-5-9-9-9-9-9-9-9-9-9-7-9-10-9-7----------------|
D|-7-7-7-7-7-7-7-7-5-5-5-5-5-5-5-5-9-9-9-9-9-9-9-9-9-7-9-10-9-7----------------|
A|-7-7-7-7-7-7-7-7-3-3-3-3-3-3-3-3-7-7-7-7-7-7-7-7-7-5-7-8--7-5----------------|
E|-5-5-5-5-5-5-5-5-------------------------------------------------------------|x2

Guitar 2
e|---------------------------------------------------------------------------|
B|---------------------------------8-----------------------------------------|
G|-----------5-5-5-7-5-9-9-9-9-7-9---9-7-------------------------------------|
D|-7-7-7-5-7-----------------------------------------------------------------|
A|---------------------------------------------------------------------------|
E|---------------------------------------------------------------------------|x2

Bridge 1:
Guitar 2
e|-----------------------------------------------------------------------------------|
B|-----------------------------------------------------------------------------------|
G|---5----5-7/------5-7--9-7-5----5----5-7/------5-7--9p7-5-7-5----------------------|
D|-7----7--------5-7-------------7----7--------5-7-----------------------------------|
A|-----------------------------------------------------------------------------------|
E|-----------------------------------------------------------------------------------|

Order:
Intro
Verse 1
Chorus (Highlighted part in Guitar 1 only played once)
Bridge 1
Verse 2 (Bass only)
Chorus
Bridge 2 (same as chorus only with slightly different timing)
Chorus (last bar extended 4 times)


| /  slide up
|   slide down
| h  hammer-on
| p  pull-off
| ~  vibrato
| +  harmonic
| x  Mute note
===============================================================================
comments
print report bad tab
3 comments total.
0 reply
smith92 wrote on May 21 2006, 01:59 pm

Just what i wanted. Nice job. 4/5.

0 reply
Callumcafc wrote on August 11 2008, 04:09 pm

Guitar 2 on intro is slightly out.

|----------------------------------------|
|----------------------------------------|
|-----5------5-7b8--------5-7----7b8-5---|
|-5-7------7----------5-7--------------7-|
|----------------------------------------|
|----------------------------------------|

+1 reply
Trowzaa wrote on May 26 2011, 10:25 am

Definitely a G5 played 10th fret, A string in the chorus instead of the F5.

I want to post or [tab]
guest
You may want to rate the tab now too:
select rating
Please do not post tabs as comments. Select "correction" instead!