Oops, an error
Loading. Please wait.

Cornerstone Tab

version 1
version 1

Whole song

Interactive

27,771 views 39 this week
5 commentsread comments
1 2 3 4 5
accurate
x 7
add to favorites
launch autoscroll
font size
0
reset
how to read this tab
guitar tuner
Autoscroll
slow
fast
+/-
esc
set tempo
stop
Help us to improve Ultimate-Guitar.com Take our survey!
×
Author
Arctic Monkeys
Humbug
Conerstone solo

e|-----------------------------------------------------------------|
B|10-7-9-5-2--2-3-2-----2-5-2--2-3-2--------10-7-9-5-2-10-9-7-5-2--|
G|-----------------4-2-4-------------4-2-4-------------------------|  
D|-----------------------------------------------------------------|
A|-----------------------------------------------------------------|
E|-----------------------------------------------------------------|

e|---------------------|
B|--0-5-0-5-0-2--------|
G|--------------2------|  
D|---------------------|
A|---------------------|
E|---------------------|

Thanks Beby for your correction.
Suggest correction
comments
print report bad tab
5 comments total. Showing first comments.
0 reply
Fozza2008 112 wrote on August 4 2009, 05:18 pm

sounds pretty good to me :)

Thanks!

+3 reply
Beby 115 wrote on August 8 2009, 07:07 pm


e|-----------------------------------------------------------------
B|10-7-9------------------------------------10-7-9-----10-9-7------
G|-------9-6--6-7-6------6-9----6-7-6--------------9-6--------9-6--
D|-----------------9-7-9----9sb-------9-7-9------------------------



--------------|
--------------|
-4/9-4/9-4/6--|
------------7-|

0 reply
Beby 115 wrote on August 8 2009, 07:09 pm

i made a correction, hope you get it.

guest
You may want to rate the tab now too:
select rating
Please do not post tabs as comments. Select "correction" instead!