Oops, an error
Loading. Please wait.

Cornerstone Tab

version 1
version 1

Whole song

Interactive

126,235 views 141 this week
2 commentsread comments
1 2 3 4 5
x 20
add to favorites
launch autoscroll
font size
0
reset
how to read this tab
guitar tuner
Autoscroll
slow
fast
+/-
esc
set tempo
stop
Help us to improve Ultimate-Guitar.com Take our survey!
×
Author
-------------------------------------------------------------------------------
     Cornerstone - Arctic Monkeys
-------------------------------------------------------------------------------
Tabbed by: Oliver John Jek
Date: Sunday, August 2, 2009
Email: sanjuro33@gmail.com

Tuning:Standard
Key: A major

Hey, this is my first tab. I hope the format is alright. 
Some sections might be a bit off for timing, but
it's not too difficult of a song so timing shouldn't 
be too much of a problem. Other than that, the notes are as 
perfect as I could make them.

Chords:| A | D | A | D | F#m | F#m | D, Bm | A |


[Intro]

e|-------------------------------------|-------------------------------------|
B|-------------------------------------|----9----10--------------------------|
G|-----------------9-------11----------|-------------------------------------|
D|---/9---/11--------------------------|---------------11--------------------|
A|-------------------------------------|-------------------------------------|
E|-------------------------------------|-------------------------------------|

0:28
e|-------------------------------------|-------------------------------------|
B|-------------------------------------|-------------------------------------|
G|------11-------------9---------------|-----11------------------------------|
D|-------------11----------------------|-------------11---\---7--------------|
A|-------------------------------------|-------------------------------------|
E|-------------------------------------|-------------------------------------|

0:37
e|-------------------------------------|-------------------------------------|
B|-------------------------------------|-------------------------------------|
G|-------------------------------------|-------------------------------------|
D|----12----11----9----11------7-------|-------------------------------------|
A|-------------------------------------|-------------------------------------|
E|-------------------------------------|-------------------------------------|

e|-------------------------------------|-------------------------------------|
B|-------------------------------------|-------------------------------------|
G|-------------------------------------|----11--------18------\11------------|
D|----12----11----9----11--------------|-------------------------------------|
A|-------------------------------------|-------------------------------------|
E|-------------------------------------|-------------------------------------|

e|-------------------------------------|-------------------------------------|
B|-------------------------------------|-------------------------------------|
G|-------------------------------------|----11----------9--------------------|
D|-------------------------------------|----------11-------------------------|
A|-------------------------------------|-------------------------------------|
E|-------------------------------------|-------------------------------------|

e|-------------------------------------|-------------------------------------|
B|-------------------------------------|-------------------------------------|
G|-------------------------------------|-------------------------------------|
D|-------------------------------------|-------------------------------------|
A|-------------------------------------|-------------------------------------|
E|-------------------------------------|-------------------------------------|


[Chorus]

e|-------------------------------------|---14--------------------------------|
B|-------------------------------------|---15--------------------------------|
G|-------------11----------------------|---14--------------------------------|
D|-------------------11----------------|-------------------------------------|
A|-------------------------------------|-------------------------------------|
E|-------------------------------------|-------------------------------------|

e|-------------------------------------|---9---------------------------------|
B|--------12--------------12-----------|--10---------------------------------|
G|------------11------11---------------|--11---------------------------------|
D|----------------12-------------------|-------------------------------------|
A|-------------------------------------|-------------------------------------|
E|-------------------------------------|-------------------------------------|

e|-------------------------------------|--10---------------------------------|
B|--------10--------------10-----------|--12---------------------------------|
G|------------11------11---------------|--11---------------------------------|
D|----------------12-------------------|--12---------------------------------|
A|-------------------------------------|-------------------------------------|
E|-------------------------------------|-------------------------------------|

e|-------------------------------------|--12---------------------------------|
B|--------12--------------12-----------|--14---------------------------------|
G|------------13------13---------------|--13---------------------------------|
D|----------------14-------------------|--14---------------------------------|
A|-------------------------------------|-------------------------------------|
E|-------------------------------------|-------------------------------------|

e|-------------------------------------|-------------------------------------|
B|-------------------------------------|-------------------------------------|
G|----14----11----13----9--------------|-------------------------------------|
D|---------------------------11--------|----9-----------11-------------------|
A|-------------------------------------|----------------------------12-------|
E|-------------------------------------|-------------------------------------|


[Verse 2]

e|---------9--7--9--5------------------|---------9--7--9--5------------------| X3
B|---------------------7--9------------|---------------------7--9------------|
G|-----9---------------------6---------|-----9---------------------6---------|
D|-------------------------------------|-------------------------------------|
A|-------------------------------------|-------------------------------------|
E|-------------------------------------|-------------------------------------|

e|-------------------------------------|
B|--10---------------------------------|
G|-------------------------------------|
D|-------------------------------------|
A|-------------------------------------|
E|-------------------------------------|


[Bridge]

e|-------------------------------------|-------------------------------------|
B|-------------------------------------|-------------------------------------|
G|----14----11----13----9--------------|-------------------------------------|
D|---------------------------11--------|-------------------------------------|
A|-------------------------------------|-------------------------------------|
E|-------------------------------------|-------------------------------------|

e|-------------------------------------|-------------------------------------|
B|-------------------------------------|-------------------------------------|
G|----14----11----13----9--------------|-------------------------------------|
D|---------------------------11--------|-------------------------------------|
A|-------------------------------------|-------------------------------------|
E|-------------------------------------|-------------------------------------|

e|-------------------------------------|-------------------------------------|
B|--------------------------/14--------|----17----15-------------------------|
G|----14----11----13----9--------------|-----------------18----16----18------|
D|-------------------------------------|-------------------------------------|
A|-------------------------------------|-------------------------------------|
E|-------------------------------------|-------------------------------------|

e|-------------------------------------|-------------------------------------|
B|----17----15-------------------------|-------------------------------------|
G|----------------18----16----18-------|----18~------------------------------|
D|-------------------------------------|-------------------------------------|
A|-------------------------------------|-------------------------------------|
E|-------------------------------------|-------------------------------------|


[Chorus]

e|---14--------------------------------|
B|---15--------------------------------|
G|---14--------------------------------|
D|-------------------------------------|
A|-------------------------------------|
E|-------------------------------------|

e|-------------------------------------|---9---------------------------------|
B|--------12--------------12-----------|--10---------------------------------|
G|------------11------11---------------|--11---------------------------------|
D|----------------12-------------------|-------------------------------------|
A|-------------------------------------|-------------------------------------|
E|-------------------------------------|-------------------------------------|

e|-------------------------------------|--10---------------------------------|
B|--------10--------------10-----------|--12---------------------------------|
G|------------11------11---------------|--11---------------------------------|
D|----------------12-------------------|--12---------------------------------|
A|-------------------------------------|-------------------------------------|
E|-------------------------------------|-------------------------------------|

e|-------------------------------------|-------------------------------------|
B|-----10--------------10--------------|--------10---------------------------|
G|---------10------10------10----------|----10------10------10----14----11---|
D|-------------12--------------12------|----------------12-------------------|
A|-------------------------------------|-------------------------------------|
E|-------------------------------------|-------------------------------------|

e|-------------------------------------|-------------------------------------|
B|-------------------------------------|-------------------------------------|
G|----13----9--------------------------|----------------------------9--------|
D|---------------11--------------------|--11--12--11--9------9--11-----9/11--|
A|-------------------------------------|-----------------12------------------|
E|-------------------------------------|-------------------------------------|

e|-------------------------------------|-------------------------------------|
B|-------------------------------------|-------------------------------------|
G|-------------------------------------|------------------------14---11------|
D|-------------------------------------|--11--12--11--9------9---------------|
A|-------------------------------------|-----------------12------------------|
E|-------------------------------------|-------------------------------------|

e|-------------------------------------|-------------------------------------|
B|-------------------------------------|-------------------------------------|
G|----13----9--------------------------|----14----13----11----9--------------|
D|---------------11--------------------|---------------------------11--------|
A|-------------------------------------|-------------------------------------|
E|-------------------------------------|-------------------------------------|

e|-------------------------------------|-------------------------------------|
B|-------------------------------------|-------------------------------------|
G|-------------------------------------|-------------------------------------|
D|-------------------------------------|-------------------------------------|
A|----9----------/14-------------------|----9----------/14--------9--11------|
E|-------------------------------------|-------------------------------------|


[Outro]

e|---------9--7--9--5------------------|---------9--7--9--5------------------| X3
B|---------------------7--9------------|---------------------7--9------------|
G|-----9---------------------6---------|-----9---------------------6---------|
D|-------------------------------------|-------------------------------------|
A|-------------------------------------|-------------------------------------|
E|-------------------------------------|-------------------------------------|

e|-------------------------------------|----5--------------------------------|
B|----10-------------------------------|-------------------------------------|
G|-------------------------------------|-------------------------------------|
D|-------------------------------------|-------------------------------------|
A|-------------------------------------|-------------------------------------|
E|-------------------------------------|-------------------------------------|



************************************

| /  Slide up
| \  Slide down
| ~  Vibrato

************************************
Suggest correction
comments
print report bad tab
2 comments total.
0 reply
Jyk 10 Aug 26, 2009 08:50 AM

Brilliant tab :)

0 reply
jepper313 10 Nov 21, 2015 01:03 PM

The last part of the solo is on the D string, not A string. Other than that, this is perfect. 5 stars.

guest
You may want to rate the tab now too:
select rating
Wanna post a correction for this tab? Suggest correction