Oops, an error
Loading. Please wait.
We have an official Cornerstone tab made by UG professional guitarists. Check out the tab »
×
30,964 views 6 this week
2 commentsread comments
1 2 3 4 5
x 13
add to favorites
×
Save as Personal and add changes to this tab that will be seen only by you. Learn more ›
×
You can save this tab as Personal to edit and correct it or add notes. All changes will be seen only by you. Learn more »
launch autoscroll
font size
0
reset
guitar tuner
edit
Autoscroll
slow
fast
+/-
esc
set tempo
stop
Author
Difficulty
This is probably not a 100% correct, but perhaps 98% :P
Also, the rythem in this is more like an impression, not totally correct
either so you'll have to play it a couple of times to get it right.

Good luck!

intro:
G|--------------|
D|--------------|
A|--------------|x2
E|---5---5-5----|

verse:
''In thought I saw you in a battleship...''
G|---------------------------------------------------|
D|---------------------------------------------------|
A|-----------4-5-----2-----------------4-5----2------|x1
E|--5---5-5--------2----2-----5---5-5-------2---2----|

then:
G|--------------------------------------------------------------------|
D|--------------------------------------------------11----------11----|
A|--------4-----7\-------4----/9-7-5----2------4--/9-------4--/9------|x1
E|--2--2----5------2--2----5----------2---2--5----------5-------------|

verse:
G|---------------------------------------------------|
D|---------------------------------------------------|
A|-----------4-5-----2-----------------4-5----2------|x1
E|--5---5-5--------2----2-----5---5-5-------2---2----|

then:
G|-------------------------------------------------------------------|
D|--------------------------------------------------11---------------|
A|--------4-----7\-------4----/9-7-5----2------4--/9-------4--9--7---|x1
E|--2--2----5------2--2----5----------2---2--5----------5------------|

brigde:
G|------------------------------------------------------------------------|
D|------------------------------------------------------------------------|
A|-55-55-55-55--2-------2--------------55-55-5----------------77-77-7-----|
E|----------------2-0-2----22-22-22-22----------77-77-7-0-5-7-------------|

then:
G|------------------------------|
D|------------------------------|
A|-----------4-5--4--2--4-------|x1
E|--5---5-5---------------------|

verse:
G|---------------------------------------------------|
D|---------------------------------------------------|
A|-----------4-5-----2-----------------4-5----2------|x1
E|--5---5-5--------2----2-----5---5-5-------2---2----|

then:
G|-------------------------------------------------|
D|-------------------------------------------------|
A|--------4-----7\-------4----/9-7-5----2----------|x1
E|--2--2----5------2--2----5-----------------------|

bridge 2:
G|---------------------------------------------------|
D|------6-9-------------6-9-----------------6-9------|
A|---------------------------------------------------|x1
E|--9-9-----5-5-5-7-9-9-----55-55-77-77-9-9----------|

then:
G|----------------------------------------------|
D|----------------------------------------------|
A|----------------------------7--7-7-9-11-12----|x1
E|--2--2-2-0-2-5-7--7-7-0-5-7-------------------|

bridge 1:
G|------------------------------------------------------------------------|
D|------------------------------------------------------------------------|
A|-55-55-55-55--2-------2--------------55-55-5----------------55-55-55-55-|
E|----------------2-0-2----22-22-22-22----------77-77-7-0-5-7-------------|


outro:

G|------------------------------------------------------|
D|---------------------------------7--------------------|
A|----------9-7-5----2---------4-7---7-4-5----2---------|x1
E|--5--5-55--------2---2-----5--------------2---2-------|

G|-------------------------------------------------------------|
D|-------------------------------------------7-4---------------|
A|---------12-9-11-7-5--------5---0-2-4-5--5-----7---7--7-7--2-|x1
E|--5----5----------------------2------------------5-----------|

G|----------------------------------------------------------------|
D|----------------------------------------------------------------|
A|--------12-9-11-7-5----2--------------/9-7-5----2---2-----------|x1
E|--5---5--------------2---2-----5---5-5------------2-------------|

G|--------------------------------------------------|
D|--------------------------------------------------|
A|--------4-----7\--------4----/9-7-5~--------------|x1
E|--2--2----5-------2--2----5-----------------------|

            
            
Suggest correction
Creating personal tab
Creating personal tab
You can edit any tab online and save it as your Personal.

You can edit, replace or remove any tab part or add personal notes – all changes will be seen only by you.

Personal tabs can be accessed anytime from any device, even offline.
Learn more »
comments
print report bad tab
2 comments total.
+1 reply
Hurm 615 Jan 04, 2010 10:01 AM

Verse sounds like this to me:

G|---------------------------------------------------|
D|---------------------------------------------------|
A|-----------4-5-----2-----------------4-5----2------|x1
E|--5---5-5--------2----0-----5---5-5-------2---0----|

(so that;s 0 instead of 2)

0 reply
nokovic 63 May 09, 2010 08:36 AM

You're right Hurm.

guest
You may want to rate the tab now too:
select rating
Wanna post a correction for this tab? Suggest correction