Oops, an error
Loading. Please wait.

Cornerstone Tab

version 2
version 2

Whole song

Interactive

13,125 views 9 this week
1 commentread comment
1 2 3 4 5
x 6
add to favorites
launch autoscroll
font size
0
reset
how to read this tab
guitar tuner
Autoscroll
slow
fast
+/-
esc
set tempo
stop
Help us to improve Ultimate-Guitar.com Take our survey!
×
Difficulty
novice
-------------------------------------------------------------------------------
                             Cornerstone - Arctic Monkeys
-------------------------------------------------------------------------------


Tuning: Standard

e|---------0--2--4--5-------------------------------------------------------|
B|----0--2-------------2----------------------------------------------------|
G|--------------------------------------------------------------------------|
D|--------------------------------------------------------------------------|
A|--------------------------------------------------------------------------|
E|--------------------------------------------------------------------------|
                                   |- Played during 2nd Verse -|
e|--------------------------------------------------------------------------|
B|----7/2/5--------7/2/---------------3--2-----2----------------------------|
G|---------------------2------------2-------4-----2-------------------------|
D|--------------------------------------------------------------------------|
A|--------------------------------------------------------------------------|
E|--------------------------------------------------------------------------|

e|-------------------9------------------------------------------------------|
B|----3--2-----2--7-----7------------3--2-----2-----------------------------|
G|--2-------4----------------------2-------4-----2--------------------------|
D|--------------------------------------------------------------------------|
A|--------------------------------------------------------------------------|
E|--------------------------------------------------------------------------|

   ...And I elongated my lift home...
e|----------5-----------------7-------7-----9-------------------------------|
B|----------7-------------------7---7-------10------------------------------|
G|----------7---------------------7---------11------------------------------|
D|--------------------------------------------------------------------------|
A|--------------------------------------------------------------------------|
E|--------------------------------------------------------------------------|

  ...Yeah I let her go the long way round...
e|---------------------------------------5-------5-----7--------------------|
B|-----------------------------------------7---7-------7--------------------|
G|-------------------------------------------7---------7--------------------|
D|--------------------------------------------------------------------------|
A|--------------------------------------------------------------------------|
E|--------------------------------------------------------------------------|


e|-----7-------7-----9------------5-----4-----------------------------------|
B|-------9---9-------10--------------7----5---------------------------------|
G|---------9---------9----------------------6----4----6--2------------------|
D|--------------------------------------------------------------------------|
A|--------------------------------------------------------------------------|
E|--------------------------------------------------------------------------|

    |- 3rd Verse -|
   ...I thought I saw you in the parrot's peak...
e|-----------------------------------------|--------------------------------------|
B|-------14--12--14------------------------|-------------14-12-14-----------------|
G|-------------------14--11--13------------|----------------------14-11-13-11-----|
D|----14-------------------------11---x5---|-6th time-14--------------------------|
A|-----------------------------------------|--------------------------------------|
E|-----------------------------------------|--------------------------------------|


   [Bridge]
   Tell me where's your hiding place...           ...I've asked everyone...
e|---5-----4------------------------------5--------7--9---------------------|
B|------7----5------x2-----------------------7--9---------------------------|
G|-------------6------------------------------------------------------------|
D|--------------------------------------------------------------------------|
A|--------------------------------------------------------------------------|
E|--------------------------------------------------------------------------|

|--12--10--9------9----12--10--9--------9---9b------------------------------|
B|-------------12------------------12---------------------------------------|
G|--------------------------------------------------------------------------|
D|--------------------------------------------------------------------------|
A|--------------------------------------------------------------------------|
E|--------------------------------------------------------------------------|

   ...And I elongated my lift home...
e|----------5-----------------7-------7-----9-------------------------------|
B|----------7-------------------7---7-------10------------------------------|
G|----------7---------------------7---------11------------------------------|
D|--------------------------------------------------------------------------|
A|--------------------------------------------------------------------------|
E|--------------------------------------------------------------------------|

  ...Yeah I let her go the long way round...
e|---------------------------------------5-------5-----7--------------------|
B|-----------------------------------------7---7-------7--------------------|
G|-------------------------------------------7---------7--------------------|
D|--------------------------------------------------------------------------|
A|--------------------------------------------------------------------------|
E|--------------------------------------------------------------------------|

  ...and kept my shortcuts to myself...
e|-----5-------5------------5-----------------------------------------------|
B|-------6---6----6-----6------6-----6--------------------------------------|
G|---------7---------7------------7-----------------------------------------|
D|--------------------------------------------------------------------------|
A|--------------------------------------------------------------------------|
E|--------------------------------------------------------------------------|


   [solo]
e|----5-----4---------------------------------------------------------------|
B|-------7----5------------------------5------------------------------------|
G|--------------6-------6-7-6-4-2-4--6----4b--------------------------------|
D|--------------------------------------------------------------------------|
A|--------------------------------------------------------------------------|
E|--------------------------------------------------------------------------|

e|-----------------------5-----4--------5--4--2-----------------------------|
B|--------------------------7----5---------------5--2--------5--------5-----|
G|----6--7--6--4--2--4-------------6-------------------4---------4----------|
D|--------------------------------------------------------------------------|
A|--------------------------------------------------------------------------|
E|--------------------------------------------------------------------------|

                   ...close, well I couldn't get much closer
e|---------------------0------2---4--5----2----------0---2---4--5-----------|
B|------------------------------------------2-------------------------------|
G|---4---6---2--------------------------------------------------------------|
D|--------------------------------------------------------------------------|
A|--------------------------------------------------------------------------|
E|--------------------------------------------------------------------------|

   yes, you can call me anything you want
e|--------------------------------------------------------------------------|
B|-----------------------------------14-------------------------------------|
G|--------------------------------------------------------------------------|
D|--------------------------------------------------------------------------|
A|--------------------------------------------------------------------------|
E|--------------------------------------------------------------------------|

| /  slide up
| \  slide down
| h  hammer-on
| p  pull-off
| ~  vibrato
| +  harmonic
| x  Mute note
===============================================================================
Suggest correction
comments
print report bad tab
1 comment total.
0 reply
Fozza2008 112 Dec 18, 2009 02:08 PM

This is my tab, i forgot to sign in when i uploaded it :( lol

guest
You may want to rate the tab now too:
select rating
Wanna post a correction for this tab? Suggest correction