Oops, an error
Loading. Please wait.
We have Chord Pro version of Cornerstone.
It's the closest thing you can get to the original song and it has interactive parts. Check out the tab »
×
14,419 views 57 this week
3 commentsread comments
1 2 3 4 5
x 16
add to favorites
×
Save as Personal and add changes to this tab that will be seen only by you. Learn more ›
×
You can save this tab as Personal to edit and correct it or add notes. All changes will be seen only by you. Learn more »
launch autoscroll
font size
0
reset
guitar tuner
edit
Autoscroll
slow
fast
+/-
esc
set tempo
stop
Artist: Arctic Monkeys

Album: Humbug



All tabs by Pedro Zappa
-----------------------------------------------------------------------------
-----------------------------------------------------------------------------


7. Cornerstone


Intro

G||--------------------|--------------------|
D||--------------------|--------------------|
A||--------------------|--------------------|
E||-5------5--5--------|-5------5--5--------|
    i    i    i    i     i    i    i    i

Verse 1

G||--------------------|--------------------|
D||--------------------|--------------------|
A||------------------4-|-5---------2--------|
E||-5------5--5--------|--------2-------0---|
    i    i    i    i     i    i    i    i
G||--------------------|--------------------|
D||--------------------|--------------------|
A||------------------4-|-5---------2--------|
E||-5------5--5--------|------2---------0---|
    i    i    i    i     i    i    i    i
G||--------------------|--------------------|--------------------|
D||--------------------|--------------------|--------------------|
A||--------4-------7/--|--------4-------9-7-|-5---------2--------|
E||-2----2----5--------|-2----2----5--------|------2---------0---|
    i    i    i    i     i    i    i    i     i    i    i    i
G||--------------------|--------------------|
D||-------------11-----|-------------11-----|
A||------4---/9--------|------4---/9--------|
E||-5------------------|-5------------------|
    i    i    i    i     i    i    i    i

G||--------------------|--------------------|
D||--------------------|--------------------|
A||------------------4-|-5---------2--------|
E||-5------5--5--------|--------2-------0---|
    i    i    i    i     i    i    i    i
G||--------------------|--------------------|
D||--------------------|--------------------|
A||------------------4-|-5---------2--------|
E||-5------5--5--------|------2---------0---|
    i    i    i    i     i    i    i    i
G||--------------------|--------------------|--------------------|
D||--------------------|--------------------|--------------------|
A||--------4-------7/--|--------4-------9-7-|-5---------2--------|
E||-2----2----5--------|-2----2----5--------|------2---------0---|
    i    i    i    i     i    i    i    i     i    i    i    i
G||--------------------|--------------------|
D||-------------11-----|--------------------|
A||------4---/9--------|------4----9----7---|
E||-5------------------|-5------------------|
    i    i    i    i     i    i    i    i

Chorus 1

G||--------------------|---------------|
D||--------------------|---------------|
A||-5-5--5-5--5-5--7-7-|-2----0-2--2---|
E||--------------------|---2-----------|
    i    i    i    i     i    i    i    
G||--------------------|---------------|
D||--------------------|---------------|
A||--------------------|-5-5--5-5--5---|
E||-2-2--2-2--2-2--2-0-|---------------|
    i    i    i    i     i    i    i  
G||--------------------|---------------|
D||--------------------|---------------|
A||-2-2--2-2--2----0-2-|---------------|
E||-------------2------|-0-00-0-00-0---|
    i    i    i    i     i    i    i 
G||--------------------|--------------------|
D||--------------------|--------------------|
A||--------------------|-5----4-------------|
E||-5------5--5------5-|-----------0----7---|
    i    i    i    i     i    i    i    i

Verse 2

G||--------------------|--------------------|
D||--------------------|--------------------|
A||------------------4-|-5---------2--------|
E||-5------5--5--------|--------2-------0---|
    i    i    i    i     i    i    i    i
G||--------------------|--------------------|
D||--------------------|--------------------|
A||----------------9-7-|-5---------2--------|
E||-5------5--5--------|------2---------0---|
    i    i    i    i     i    i    i    i
G||--------------------|--------------------|--------------------|
D||--------------------|--------------------|--------------------|
A||--------4-------7/--|--------4-------9-7-|-5---------2--------|
E||-2----2----5--------|-2----2----5--------|--------------------|
    i    i    i    i     i    i    i    i     i    i    i    i

Bridge

G||------6---------4---|--------------------|
D||-----------6--------|--------------------|
A||-4------------------|--------------------|
E||--------------------|-5----5----5----7---|
    i    i    i    i     i    i    i    i
G||------6---------4---|--------------------|
D||-----------6--------|--------------------|
A||-4------------------|--------------------|
E||--------------------|-5-5--5-5--7-7--2-2-|
    i    i    i    i     i    i    i    i
G||------6---------4---|--------------------|
D||-----------6--------|--------------------|
A||-4------------------|------------------0-|
E||--------------------|-2------2--2-0--2---|
    i    i    i    i     i    i    i    i
G||--------------------|--------------------|
D||--------------------|--------------------|
A||-2------2--2----0-2-|-7------9--7-9--11--|
E||-------------2------|--------------------|
    i    i    i    i     i    i    i    i

Chorus 2

G||--------------------|---------------|
D||--------------------|---------------|
A||-5-5--5-5--5-5--7-7-|-2----0-2--2---|
E||--------------------|---2-----------|
    i    i    i    i     i    i    i    
G||--------------------|---------------|
D||--------------------|---------------|
A||--------------------|-5-5--5-5--5---|
E||-2-2--2-2--2-2--2-0-|---------------|
    i    i    i    i     i    i    i  
G||--------------------|---------------|---------------|
D||--------------------|---------------|---------------|
A||-2-2--2-2--2----0-2-|-5-5--5-5--5-5-|-5-5--5-5--5-5-|
E||-------------2------|---------------|---------------|
    i    i    i    i     i    i    i     i    i    i 

Solo

G||--------------------|--------------------|
D||--------------------|--------------------|
A||------4--------/9-7-|-5---------2--------|
E||-5-----5--55--------|------2---------0---|
    i    i    i    i     i    i    i    i
G||--------------------|--------------------|
D||-------------11-11--|--------------------|
A||------4-9--9--------|-5---------2--------|
E||-5------------------|------2---------0---|
    i    i    i    i     i    i    i    i
G||--------------------|--------------------|
D||-----------7----6---|--------------------|
A||-------------9----7-|-------------0--2-4-|
E||-2----2-2-----------|-7------9--2--------|
    i    i    i    i     i    i    i    i
G||--------------------|--------------------|
D||-----------6-4------|--------------------|
A||-5----5-5-------7---|-7----7-7--7-2----2-|
E||------------------7-|----------------2---|
    i    i    i    i     i    i    i    i

Chorus 3

G||--------------------|--------------------|
D||-----------7----6---|--------------------|
A||-------------9----7-|-5---------2--------|
E||-5----5-5-----------|------2---------0---|
    i    i    i    i     i    i    i    i
G||--------------------|--------------------|
D||--------------------|--------------------|
A||------4--------/9-7-|-5---------2--------|
E||-5-----5--55--------|------2---------0---|
    i    i    i    i     i    i    i    i
G||--------------------|--------------------|--------------------||
D||--------------------|--------------------|--------------------||
A||--------4-------7---|--------4-------9-7-|-5------------------||
E||-2---22----5-5----5-|-2---22----5--------|--------------------||
    i    i    i    i     i    i    i    i     i    i    i    i


Tab by Pedro Zappa
-----------------------------------------------------------------------------
-----------------------------------------------------------------------------

            
            
Suggest correction
Creating personal tab
Creating personal tab
You can edit any tab online and save it as your Personal.

You can edit, replace or remove any tab part or add personal notes – all changes will be seen only by you.

Personal tabs can be accessed anytime from any device, even offline.
Learn more »
comments
print report bad tab
3 comments total.
+2 reply
Tpok 10 Dec 12, 2015 09:04 AM

flawless 10/10 would play again

+1 reply
bluupanda 22 Jan 20, 2016 11:53 AM

fantastically accurate

0 reply
vaclav.volhejn 12 Jan 31, 2017 01:03 PM

Nearly perfect - missing one note at the very end of the bridge. A 12 on the A string, I think.

guest
You may want to rate the tab now too:
select rating
Wanna post a correction for this tab? Suggest correction