Oops, an error
Loading. Please wait.

Cornerstone Tab

version 3
version 3

Whole song

Interactive

2,535 views 3 this week
no commentswrite comment
1 2 3 4 5
accurate
x 3
add to favorites
launch autoscroll
font size
0
reset
how to read this tab
guitar tuner
Tab Pro tools
  • play this tab
  • loop segment
  • change instrument
  • show fretboard
  • metronome
×
Best way to learn
"Cornerstone"
Autoscroll
slow
fast
+/-
esc
set tempo
stop
Difficulty
novice
CORNERSTONE by Mauargen

Hi, I am from Argentina. 
This is my first TAB on the web. 
I transcripted on my own because I can not found it on the web. 
If you find mistakes please coment. Enjoy it! 

e|---------4-5-|
B|-----5-7-----|
G|-4-6--------6|
D|-------------|
A|-------------|
E|-------------|

e|-------------|-------------|-------------|-------------|----9--------|
B|--5s7-----5--|--5s7--------|-------------|----------7--|--------7----|
G|-------6-----|-------6-----|--7-6-4-6----|--7-6-4-6----|-------------|
D|-------------|----------7--|----------7--|-------------|-------------|
A|-------------|-------------|-------------|-------------|-------------|
E|-------------|-------------|-------------|-------------|-------------|

e|-------------|-------------|
B|--5s7-----5--|--5s7--------|
G|-------6-----|-------6-----|
D|-------------|-------------|
A|-------------|-------------|
E|-------------|-------------|

e|--7---7---7--|--5---5---5--|--7---7---5--|--5---4------|-------------|
B|---7-7----7--|---7-7----7--|---9-9----5--|----7---5----|-------------|
G|----7-----7--|----7-----7--|----9-----6--|----------6--|----4--6-----|
D|-------------|-------------|----------7--|-------------|----------7--|
A|-------------|-------------|----------7--|-------------|-------------|
E|-------------|-------------|----------5--|-------------|-------------|

e|------9-7-9--|--5---4------| Repeat six (6) times.
B|-------------|----7---5----|
G|-------------|----------6--|
D|-------------|-------------|
A|-------------|-------------|
E|-------------|-------------|

e|--5---4------|--5---4------|--5---4---9--|-12-10-9-7-9-|-12-10-9-7-9-|
B|----7---5----|----7---5----|----7---5----|-------------|-------------|
G|----------6--|----------6--|-------------|-------------|-------------|
D|-------------|-------------|-------------|-------------|-------------|
A|-------------|-------------|-------------|-------------|-------------|
E|-------------|-------------|-------------|-------------|-------------|

e|-9^----------|
B|-------------|
G|-------------|
D|-------------|
A|-------------|
E|-------------|

e|--7---7---7--|--5---5---5--|-5---5---5---|--5---4------|-------------|
B|---7-7----7--|---7-7----7--|--6-6-6-6-6-5|----7---5----|-------------|
G|----7-----7--|----7-----7--|---7---7---7-|----------6--|-6-7-6-4---4-|
D|-------------|-------------|-------------|-------------|---------7---|
A|-------------|-------------|-------------|-------------|-------------|
E|-------------|-------------|-------------|-------------|-------------|

e|-------------|-------------|
B|-------------|-------------|
G|-6--6s9--6---|-6-7-6-4---4-|
D|-------------|---------7---|
A|-------------|-------------|
E|-------------|-------------|

e|--5---4------|--5-4--------|-------------|-------------|-------------|
B|----7---5----|------9-7----|-------------|-------------|-------------|
G|----------6--|----------6--|--4--6s9-----|--4--6s9-----|--4--6-------|
D|-------------|-------------|-------------|-------------|--------7----|
A|-------------|-------------|-------------|-------------|-------------|
E|-------------|-------------|-------------|-------------|-------------|

e|------9-7-9--|--5---4------| Repeat six (6) times.
B|-------------|----7---5----|
G|-------------|----------6--|
D|-------------|-------------|
A|-------------|-------------|
E|-------------|-------------|
comments
We did not receive enough feedback on this tab! Please rate:
print report bad tab
1 2 3 4 5
I want to post or [tab]
guest
You may want to rate the tab now too:
select rating
Please do not post tabs as comments. Select "correction" instead!