Oops, an error
Loading. Please wait.
We have an official Crying Lightning tab made by UG professional guitarists. Check out the tab »
×

Crying Lightning tab

version 10
version 10

Whole song

Video

67 views 1 this week
no commentswrite comment
1 2 3 4 5
2 more votes to show rating
add to favorites
×
Save as Personal and add changes to this tab that will be seen only by you. Learn more ›
×
You can save this tab as Personal to edit and correct it or add notes. All changes will be seen only by you. Learn more »
launch autoscroll
font size
0
reset
how to read this tab
guitar tuner
backing track
0:00
0:00
edit
Autoscroll
slow
fast
+/-
esc
set tempo
stop
Author
Difficulty
About this tab version
Rocksmith 2014 (Remastered) Version - Lead. Was this info helpful? Yes No
Crying Lightning - Lead
Arctic Monkeys
TUNING: Standard (E A D G B e)
                    
[Intro]
(0:09 - 0:23)                                                                            
e|------------------|------------------|------------------|------------------|
B|------------------|------------------|------------------|------------------|
G|------------------|------------------|------------------|------------------|
D|------------------|--------0-3-------|--------3-2-------|--------0-5-3-2-0-|
A|------------------|--0-2-3-----------|--0-2-3-----------|--0-2-3-----------|
E|------------0-1-4-|------------0-1-4-|------------0-1-4-|------------------|


e|------------------|---------|
B|------------------|---------|
G|------------------|---------|
D|----0-2-3---------|---------|
A|--3---------0-2-3-|--0------|
E|----------4-------|---------|

  
e|------------------| 
B|------------------|   
G|------------------|    
D|------------------|    
A|------------7-6---|    
E|--5-5-5-5-8-----4-| (x12) 
 
e|------------------|------------------|------------------|
B|------------------|------------------|------------------|
G|------------------|------------------|------------------|
D|------------------|------------------|------------------|
A|----7---6-------6-|----7---6-------6-|----7---6-------6-|
E|--8---4---5-8-7---|--8---4---5-8-7---|--8---4---5-8-7---|

[Postvs]
(1:21 - 1:41)                                                                              
e|------------------|------------------|------------------|------------------|
B|------------------|------------------|------------------|------------------|
G|------------------|------------------|------------------|------------------|
D|------------------|--------0-3-------|--------3-2-------|--------0-5-3-2-0-|
A|----7---6---------|--0-2-3-----------|--0-2-3-----------|--0-2-3-----------|
E|--8---4---5-0-1-4-|------------0-1-4-|------------0-1-4-|------------------|


e|------------------|------------------|-------------------|------------------|------------------|
B|------------------|------------------|-------------------|------------------|------------------|
G|------------------|------------------|-------------------|------------------|------------------|
D|----0-2-3---------|--------0-3-------|--------3-2--------|--------0-5-3-2-0-|----0-2-3---------|
A|--3---------0-2-3-|--0-2-3-----------|--0-2-3------------|--0-2-3-----------|--3---------0-2-3-|
E|----------4-------|------------0-1-4-|------------0-1-4--|------------------|----------4-------|

[Postvs]
(1:41 - 1:59)  
e|------------------|------------------|------------------|------------------|
B|------------------|------------------|------------------|------------------|
G|------------------|------------------|------------------|------------------|
D|--------0-3-------|--------3-2-------|--------0-5-3-2-0-|----0-2-3---------|
A|--0-2-3-----------|--0-2-3-----------|--0-2-3-----------|--3---------0-2-3-|
E|------------0-1-4-|------------0-1-4-|------------------|----------4-------| (x2)

[Chorus]
(1:59 - 2:36)                              
    FMaj7          Dmin            Amin                  FMaj7          Dmin            
e|------0------|-----1------|-----0-------|       e|------0------|-----1------|
B|------1------|-----3------|-----1-------|       B|------1------|-----3------|
G|------2------|-----2------|-----2-------|       G|------2------|-----2------|
D|------3------|-----0------|-----2-------|       D|------3------|-----0------|
A|------3--(x8)|--------(x8)|-----0--(x16)| (x3)  A|------3--(x8)|--------(x8)|
E|-------------|------------|-------------|       E|-------------|------------|

[Solo]
(2:36 - 2:45)                                                               
e|-----------------------------------------------------------------|
B|-----------------------------------------------------------------|
G|--2s5-5s7-7s5-5s7---------------------5s7-7s5-5s7-7s5------------|
D|------------------------------------------------------------7----|
A|-----------------------------------------------------------------|
E|-----------------------------------------------------------------|

e|-----------------------------------------------------------------|
B|-----------------------------------------------------------------|
G|------5s7-7s5-5s9---------------------5s7-7s5--------------------|
D|----------------------------------------------------7------------|
A|-----------------------------------------------------------------|
E|-----------------------------------------------------------------|
     
e|-------------------------------------------------------------------------------------------------|
B|-------------------------------------------------------------------------------------------------|
G|----------5s7---7s5---5s9---------------5s7---7s5--5s14-------------12s14-14s12--12s9-----9------|
D|-------------------------------------------------------------------------------------------------|
A|-------------------------------------------------------------------------------------------------|
E|-------------------------------------------------------------------------------------------------|
            
e|-------------------------------------------------------------------------------------------------|
B|-------------------------------------------------------------------------------------------------|
G|--------12s14-14s12--12s9---------------------5s7---7s5---5s7-----------------2------------------|
D|-------------------------------------------------------------------------------------------------|
A|-------------------------------------------------------------------------------------------------|
E|-------------------------------------------------------------------------------------------------|

[Bridge]
(2:45 - 2:54)                                                        
e|------------------|------------------|------------------|-----------------|
B|------------------|------------------|------------------|-----------------|
G|------------------|------------------|------------------|-----------------|
D|------------------|------------------|------------------|-----------------|
A|----7---6-------6-|----7---6-------6-|----7---6-------6-|----7---6--------|
E|--8---4---5-8-7---|--8---4---5-8-7---|--8---4---5-8-7---|--8---4---5------|

[Chorus]
(3:06 - 3:13)                                       
      FMaj7         Dmin         Amin                       FMaj7         Dmin                            
e|------0------|-----1------|-----0-------|           e|------0------|-----1------|     
B|------1------|-----3------|-----1-------|           B|------1------|-----3------|
G|------2------|-----2------|-----2-------|           G|------2------|-----2------|
D|------3------|-----0------|-----2-------|           D|------3------|-----0------|
A|------3--(x8)|--------(x8)|-----0--(x16)| (x3)      A|------3--(x8)|------------|
E|-------------|------------|-------------|           E|-------------|------------|



************************************
 
| s 
 Slide

************************************
Suggest correction
Creating personal tab
Creating personal tab
You can edit any tab online and save it as your Personal.

You can edit, replace or remove any tab part or add personal notes – all changes will be seen only by you.

Personal tabs can be accessed anytime from any device, even offline.
Learn more »
Give kudos to tab author, rate the tab!
1 2 3 4 5
comments
print report bad tab
guest
You may want to rate the tab now too:
select rating
Wanna post a correction for this tab? Suggest correction