Oops, an error
Loading. Please wait.

Crying Lightning Tab

version 2
version 2
10,101 views 6 this week
1 commentread comment
1 2 3 4 5
accurate
x 3
add to favorites
launch autoscroll
font size
0
reset
how to read this tab
guitar tuner
Autoscroll
slow
fast
+/-
esc
set tempo
stop
Help us to improve Ultimate-Guitar.com Take our survey!
×
Difficulty
novice
Jamie Cook
e|----5--------7-----5-----8--------|----5----7-----5-----8-------||
B|--5--------------5-----8---8-9----|--5----------5-----8---9/17--||
G|5--------------5-----9------------|5----------5-----9-----------||
D|----------------------------------|-----------------------------||
A|----------------------------------|-----------------------------||
E|----------------------------------|-----------------------------||

Alex Turner 
e|------|---------------|-----------------|------------------------|
B|------|---------------|-----------------|------------------------|
G|------|---------------|-----------------|------------------------|
D|------|-------3-------|-------3-2-------|-------2/5-3-2-0--------|
A|----3-|-0-2-3-------3-|-0-2-3---------3-|-0-2-3-----------3333---|
E|1-4---|---------1-4---|-----------1-4---|----------------------4-|

Jamie
e|----5----------7-----5-----8-------12-|
B|--5---LET RING-----5-----8------12----|
G|5----------------5-----9-----13-------|
D|--------------------------------------|
A|--------------------------------------|
E|--------------------------------------|

Alex

e|--------------------|    
B|--------------------|    
G|--------------------|    
D|--------------------|    
A|------------7-6-----|    
E|4h5-5-5-5-8-----4---| x8 

e|--------------------|       |---------|------||
B|--------------------|       |---------|------||
G|--------------------|       |---------|------||
D|--------------------|       |---------|------||
A|---7---6-------6----|       |--7---6--|------||
E|-8---5---5-8-7------| x3    |8---5----|1-4---||



Jamie
e|5/13--5/12--5/10--8\4-|
B|----------------------|
G|----------------------|
D|----------------------|
A|----------------------|
E|----------------------|

e|------------10--------------5|
B|------------10--------------5|
G|---9-7------10----9-7-------5|
D|10-----7-10-----10-----10-7--|
A|-----------------------------|
E|-----------------------------| x3

e|------------10---||
B|------------10---||
G|---9-7------10---||
D|10-----7-10------||
A|-----------------||
E|-----------------||

Alex

e|----------------|
B|----------------|
G|----------------|
D|----------------|
A|------------7-6-|
E|5-5-5-5-5-8-----| x4

Jamie’s solo:

e|----------------------------------------------------------------|
B|----------------------------------------------------------------|
G|----------------------------------------------------------------|
D|---10b12b10b12-10b12b10b12b10----10b12b10-14-10b12b10-----------|
A|12----------------------------12----------------------12--------|
E|----------------------------------------------------------------|

e|----------------------------------------------------------------|
B|----------------------------------------------------------------|
G|---------------------14-12b14b12----12b14b12--------------------|
D|10b12b10-14-10b12b10-------------14----------14--10b12b10b12----|
A|-------------------------------------------------------------12-|
E|----------------------------------------------------------------|


Alex

e|--------------------|   |---------|
B|--------------------|   |---------|
G|--------------------|   |---------|
D|--------------------|   |---------|
A|---7---6-------6----|   |--7---6--|
E|-8---5---5-8-7------| x3|8---5---5|

Jamie

e|------------10--------------5|
B|------------10--------------5|
G|---9-7------10----9-7-------5|
D|10-----7-10-----10-----10-7--|
A|-----------------------------| 
E|-----------------------------|  x3

e|-----------------5--|
B|-----------------6--|
G|---9-7-----------7--|
D|10-----10-7-10------|
A|--------------------|
E|--------------------|
Suggest correction new What's this?
You can suggest a correction to this tab. Community and Mods will review your correction and vote to approve or reject it.
comments
We did not receive enough feedback on this tab! Please rate:
print report bad tab
1 2 3 4 5
1 comment total.
0 reply
robsuj 265 wrote on July 10 2009, 12:38 pm

all the parts that r there are very gd but surely the solo isnt bends?!?

guest
You may want to rate the tab now too:
select rating
Please do not post tabs as comments. Select "correction" instead!