Oops, an error
Loading. Please wait.
We have an official Crying Lightning tab made by UG professional guitarists. Check out the tab »
×
3,670 views 1 this week
1 commentread comment
1 2 3 4 5
2 more votes to show rating
add to favorites
×
Save as Personal and add changes to this tab that will be seen only by you. Learn more ›
×
You can save this tab as Personal to edit and correct it or add notes. All changes will be seen only by you. Learn more »
launch autoscroll
font size
0
reset
guitar tuner
backing track
0:00
0:00
edit
Autoscroll
slow
fast
+/-
esc
set tempo
stop
Author
Difficulty
Arctic Monkeys - Crying Lightning


I only started playing the bass a few weeks ago and this is the first song I
learnt so here goes... (It's also the first tab I've written so I apologise
if I make any mistakes and if it's wrong)


Verse: (x6)


G|------------------------------------------------------------------------|
D|------------------------------------------------------------------------|
A|-------------8-8-8/6-----------7-7-8-11-----------10-10-10/3-3-3-3------|
E|---5-5-5-5-5---------5-5-5-5-5----------5-5-5-5-5------------------4-4--|


Chorus: (I couldn't really make out the bass in the chorus if there is one but you can 
this along with the guitar)


G|-------------------|
D|-------------------|
A|------------7-6----|   (x8)
E|--5-5-5-5-8-----4--|


Then this...


G|-------------------|
D|-------------------|
A|----7---6-------7--|   (x3)
E|--8---4---5-8-7----|


Then end the chorus with this...


G|-------------------|
D|-------------------|
A|----7---6----------|
E|--8---4---5-0-1-3--|


And play the verse again x4


...And unfortunately I couldn't hear the bass in the 2nd chorus so I can't tab that.

            
            
Suggest correction
Creating personal tab
Creating personal tab
You can edit any tab online and save it as your Personal.

You can edit, replace or remove any tab part or add personal notes – all changes will be seen only by you.

Personal tabs can be accessed anytime from any device, even offline.
Learn more »
Give kudos to tab author, rate the tab!
1 2 3 4 5
comments
print report bad tab
1 comment total.
0 reply
IndieJoe 1,997 Aug 11, 2009 06:12 AM

sorry but this tab's shit...

guest
You may want to rate the tab now too:
select rating
Wanna post a correction for this tab? Suggest correction