Oops, an error
Loading. Please wait.

Crying Lightning Tab

version 4
version 4
8,396 views 1 this week
2 commentsread comments
1 2 3 4 5
x 6
add to favorites
launch autoscroll
font size
0
reset
how to read this tab
guitar tuner
Autoscroll
slow
fast
+/-
esc
set tempo
stop
Help us to improve Ultimate-Guitar.com Take our survey!
×
Author
Difficulty
novice
Alex Turner, Intro and 2nd Verse

e|----------------------------------------------------------------|
B|----------------------------------------------------------------|
G|----------------------------------------------------------------|
D|----------------2-----------------3-2-----------------2-5-------|
A|-----3-:-0-2-3-0-----------3-0-2-3------------3-0-2-3-----------|
E|-1-4------------------1-4----------------1-4--------------------|

e|----------------------------------------------------------------|
B|----------------------------------------------------------------|
G|----------------------------------------------------------------|
D|-------------2-5-3-2-0-------2-3--------------------------------|
A|-----3-0-2-3------------3-5--------0-2-3------------------------|
E|-1-4-----------------------------4-------:(2nd verse)---------|

Jamie Cook, Intro

e|-----5----7----------5-----------8--------------5---------------|
B|---5----------------5-----------8-8-9-----------5---------------|
G|-5----------------5------------9----------------5---------------|
D|----------------------------------------------------------------|
A|----------------------------------------------------------------|
E|----------------------------------------------------------------|

Alex Turner, 1st Verse 0:44

e|--17s15---------------------------------------------------------|

Jamie Cook, 1st Verse

e|-----5----7-------5-----------8-----------5--7--5--------8------|
B|---5-------------5-----------8-8-9--------5--5--5------8---9s17-|
G|-5--------------5-----------9-------------5--5--5----9----------|
D|----------------------------------------------------------------|
A|----------------------------------------------------------------|
E|----------------------------------------------------------------|

Alex Turner, 1st Chorus / Bridge, Jamie Cook - Pre Solo + Solo

e|----------------------------------------------------------------|
B|----------------------------------------------------------------|
G|----------------------------------------------------------------|
D|----------------------------------------------------------------| x2
A|------------7-6-------------7-6-------------7-6------------7-6--|
E|--5-5-5-5-8-----4-5-5-5-5-8-----4-5-5-5-5-8----4-5-5-5-5-8------|

e|----------------------------------------------------------------|
B|----------------------------------------------------------------|
G|----------------------------------------------------------------|
D|----------------------------------------------------------------|
A|---7---6-------6---------7-----6--------------------------------|
E|-8---5---5-8-5----x3---8----5-----5--lead to 2nd verse- --------|

Jamie Cook 1st Chorus, 1:03

e|----------------------------------------------------------------|
B|----------------------------------------------------------------|
G|----------------------------------------------------------------|
D|----------------------------------------------------------------|
A|------------7-6-------------7-6---------------7-6------------7-6|
E|-5v-------8-------5v------8------5v---------8------5v------8----|

After Chrous/Solo

e|----------------------------------------------------------------|
B|----------------------------------------------------------------|
G|----------------------------------------------------------------|
D|----------------------------------------------------------------|
A|---7-------------6----------------------------------------------|
E|-8-------------5----x4------------------------------------------|

Jamie Cook 2nd Verse

e|5s13--5s12--5s10--8s4---x2-----5s13--17s12--5s10--8s4-----------| 
B|----------------------------------------------------------------|
G|----------------------------------------------------------------|
D|----------------------------------------------------------------|
A|----------------------------------------------------------------|
E|----------------------------------------------------------------|

Alex Turdburglar 2nd and 3rd Chorus

e|-1----------1-----------0---------------------------------------|
B|-1----------3-----------1---------------------------------------|
G|-2-x8-------2-x8--------2-x16-----------------------------------|
D|-3----------------------2---------------------------------------| x2
A|-3--------------------------------------------------------------|
E|-1--------------------------------------------------------------|

Jamie Cook, 2nd and 3rd Chorus

e|------------10--------------5|
B|------------10--------------5|
G|---9-7------10----9-7-------5| x2
D|10-----7-10-----10-----10-7--|
A|-----------------------------|
E|-----------------------------|

Alex Turner Solo 

e|----------------------------------------------------------------|
B|----------------------------------------------------------------|
G|-2s5s7s5b7-5s7s5s7s2--------2s5s7s5s9-5s7s5s2-------------------|
D|----------------------------------------------------------------|
A|----------------------------------------------------------------|
E|----------------------------------------------------------------|

e|----------------------------------------------------------------|
B|----------------------------------------------------------------|
G|2s5s7s5s9-5s7s5s14------14s12s14s9-------5s7s5s9s2--------------|
D|----------------------------------------------------------------|
A|----------------------------------------------------------------|
E|----------------------------------------------------------------|

3rd Chorus

Alex Turner, Ending


e|-1--(5)----------------|
B|-1---6-----------------|
G|-2---7-----------------|
D|-3---7-----------------|
A|-3---5-----------------|
E|-1---------------------|

Jamie Cook, Ending

e|---------------------|
B|---------------------|
G|---9-7---------------| 
D|10-----10-7-10-14hold|
A|---------------------|
E|---------------------|




Suggest correction
comments
print report bad tab
2 comments total.
0 reply
Fozza2008 112 Jul 23, 2009 08:27 AM

Looks pretty good :) 4 STARS!

Arctic Monkeys are number 1

0 reply
naggers 85 Jul 24, 2009 04:50 PM

you mistyped '5'. :p

guest
You may want to rate the tab now too:
select rating
Wanna post a correction for this tab? Suggest correction