Oops, an error
Loading. Please wait.

D Is For Dangerous bass

version 2
version 2
1,757 views 1 this week
1 commentread comment
1 2 3 4 5
2 more votes to show rating
add to favorites
×
Save as Personal and add changes to this tab that will be seen only by you. Learn more ›
×
You can save this tab as Personal to edit and correct it or add notes. All changes will be seen only by you. Learn more »
launch autoscroll
font size
0
reset
guitar tuner
backing track
0:00
0:00
edit
Autoscroll
slow
fast
+/-
esc
set tempo
stop
Author
-------------------------------------------------------------------------------
			     D is for Dangerous - Arctic Monkeys
-------------------------------------------------------------------------------

Tabbed By : San Miguel
e-mail: sanmiguel1@gmail.com

Im pretty sure this tab is 100% correct, but whether Nick O'Mally plays the notes on the 
strings its a different story. any way, its sounds great. Any corrections just email 
to me.


Tuning: Standard
 Intro (let note ring)
G|---------------------------------------------------------------------------|
D|-10------------------------------------------------------------------------|
A|---------------------------------------------------------------------------|
E|---------------------------------------------------------------------------|

Verse
G|---------------------------------------------------------------------------|
D|----------------8-10-10-10-8-----------------------------------------------|
A|-------6-10--10--------------10--10-6--------------------------------------|
E|-8-8-8---------------------------------------------------------------------|

Chorus 1
G|---------------------------------------------------------------------------|
D|---------------------------------------------------------------------------|
A|-8--8-8-8-6-----8-8-8-8-8-6-----------9-9-9---------9-9-9------------------|
E|-------------8---------------8-8--8-8--------8--8-8------------------------|

Chorus 2
G|---------------------------------------------------------------------------|
D|---------------------------------------------------------------------------|
A|-8--8-8-8-6-----8-8-8-8-8-6------------------------------------------------|
E|-------------8---------------8-8--8-8--6--6--4-4-3-------------------------|

Chorus 3
G|---------------------------------------------------------------------------|
D|---------------------------------------------------------------------------|
A|-8--8-8-8-6-----8-8-8-8-8-6-----------9-9-9---------9-9-9-9-9-9-9-9-9------|
E|-------------8---------------8-8--8-8--------8--8-8------------------------|

Bridge 1
G|---------------------------------------------------------------------------|
D|---------------------------------------------------------------------------|
A|-------6-10--10------------------------------------------------------------|
E|-8-8-8-----------6--8-8-8-6-3--3-6-----------------------------------------|

Bridge 2
G|--------------------------------------------------------------8--12-12-12--|
D|--------------------------------------------------8--10-10-10--------------|
A|-------6-10--10--------------------------6-10--10--------------------------|
E|-8-8-8-----------6--8-8-8-6-3--3-6-8-8-8-----------------------------------|

Order:

Intro
Verse x3
Chorus 1
Chorus 2
Verse x 3 (but play A|-8-| after youve play it though 3 times)
Verse x 8
Bridge 1 x 8
Bridge 2
Chorus 1 x 2
Chorus 3
Chorus 2


| /  slide up
| \  slide down
| h  hammer-on
| p  pull-off
| ~  vibrato
| +  harmonic
| x  Mute note
===============================================================================

            
            
Suggest correction
Creating personal tab
Creating personal tab
You can edit any tab online and save it as your Personal.

You can edit, replace or remove any tab part or add personal notes – all changes will be seen only by you.

Personal tabs can be accessed anytime from any device, even offline.
Learn more »
Give kudos to tab author, rate the tab!
1 2 3 4 5
comments
print report bad tab
1 comment total.
0 reply
San Miguel 106 May 09, 2007 04:43 AM

bah! i made a mistake. youre meant to play E|-8-| after youve played the verse though 3 times, not A|-8-|

guest
You may want to rate the tab now too:
select rating
Wanna post a correction for this tab? Suggest correction