Oops, an error
Loading. Please wait.
We have an official D Is For Dangerous tab made by UG professional guitarists. Check out the tab »
×
2,036 views 1 this week
1 commentread comment
1 2 3 4 5
x 4
add to favorites
×
Save as Personal and add changes to this tab that will be seen only by you. Learn more ›
×
You can save this tab as Personal to edit and correct it or add notes. All changes will be seen only by you. Learn more »
launch autoscroll
font size
0
reset
guitar tuner
backing track
0:00
0:00
edit
Autoscroll
slow
fast
+/-
esc
set tempo
stop
i basicly took one of the tabs of UG and retabbed it. think its the same, only a bit 
 could be wrong tho.

Tabbed by Piss-Nils

Tuning: Standard
 Intro (let note ring)
|-----------------------------------------------|
|-10--------------------------------------------|
|-----------------------------------------------|
|-----------------------------------------------|
Verse

|------------0-0-3-5-5-5-3-0-0-----------------------------------------------------------|
|--------1-------------------------------------------------------------------------------|
|-3-3-3----------------------------------------------------------------------------------|
|----------------------------------------------------------------------------------------|

chorus 1

|----------------------------------------------------------------------------------------|
|-3--3-3-3-1-----3-3-3-3-1-----------4-4-4---------4-4-4---------------------------------|
|--------------3-------------3-3--3-3--------3--3-3--------------------------------------|
|----------------------------------------------------------------------------------------|

chorus 2
|----------------------------------------------------------------------------------------|
|-3--3-3-3-1-----3-3-3-3-1---------------------------------------------------------------|
|--------------3-------------3-3--3-3--1-1-----------------------------------------------|
|---------------------------------------------4-4-3--------------------------------------|

chorus 3
|----------------------------------------------------------------------------------------|
|-3--3-3-3-1------3-3-3-3-1-----------4-4-4---------4-4-4-4-4-4-4-4-4-4-4----------------|
|--------------3-------------3-3--3-3--------3--3-3--------------------------------------|
|----------------------------------------------------------------------------------------|

bridge 1
|----------0--0--------------------------------------------------------------------------|
|--------1-------------------------------------------------------------------------------|
|-3-3-3---------1-3-3-3-1---1------------------------------------------------------------|
|------------------------------3---------------------------------------------------------|

bridge 2
|----------0---0--------------------------------0--0--3--5-5-5--8--12-12-12--------------|
|--------1------------------------------------1------------------------------------------|
|-3-3-3------------1--3-3-3-1-------1-3-3-3----------------------------------------------|
|------------------------------3--3------------------------------------------------------|

Order:

Intro
Verse x3
Chorus 1
Chorus 2
Verse x 3
Verse x 8
Bridge 1 x 8
Bridge 2
Chorus 1 x 2
Chorus 3
Chorus 2

            
            
Suggest correction
Creating personal tab
Creating personal tab
You can edit any tab online and save it as your Personal.

You can edit, replace or remove any tab part or add personal notes – all changes will be seen only by you.

Personal tabs can be accessed anytime from any device, even offline.
Learn more »
comments
print report bad tab
1 comment total.
0 reply
San Miguel 106 Jun 07, 2007 05:45 AM

just a couple of mistakes.

1. in the verse you forgot one note at the end, theres another D|-1-| played at the end.

2. in chorus 3 you have 2 too many D|-4-|'s, there should only be 9.

3. in bridge 1, the second D|-1-| at the end should be an E|-3-|.

apart from those wee mistakes, nice tab.

guest
Wanna post a correction for this tab? Suggest correction