Oops, an error
Loading. Please wait.

D Is For Dangerous tab

version 3
version 3

Whole song

Interactive

46,393 views 78 this week
4 commentsread comments
1 2 3 4 5
x 14
add to favorites
×
Save as Personal and add changes to this tab that will be seen only by you. Learn more ›
×
You can save this tab as Personal to edit and correct it or add notes. All changes will be seen only by you. Learn more »
launch autoscroll
font size
0
reset
how to read this tab
guitar tuner
backing track
0:00
0:00
edit
Autoscroll
slow
fast
+/-
esc
set tempo
stop
Author
Tuning: Standard

[Chorus]

[Both Guitars]
e|------------------------------------------------------------------------------|
B|------------------------------------------------------------------------------|
G|-10-10-10-10-10--8--5---10-10-10-10-10--8--5------8--11-11-11-----8--11-11-11-|
D|-10-10-10-10-10--8--5---10-10-10-10-10--8--5--10--8--11-11-11-10--8--11-11-11-|
A|-8-8-8-8-8---6--3---8-8-8-8-8---6--3--10--6--9--9--9--10--6--9--9--9----------|
E|--------------------------------------8---------------8-----------------------|

(Alex Turner)
e|-----------------------------------------------------------------------|
B|-----------------------------------------------------------------------|
G|-10-10-10-10-10--8--5---10-10-10-10-10--8--5---------------------------|
D|-10-10-10-10-10--8--5---10-10-10-10-10--8--5--10--10-x-x--8-x-x--6-6-5-|
A|-8-8-8-8-8---6--3---8-8-8-8-8---6--3--10--10-x-x--8-x-x--6-6-5---------|
E|--------------------------------------8---8--x-x--6-x-x--4-4-3---------|

(Jamie Cook)
e|----------------------------------------------------------------------|
B|----------------------------------------------------------------------|
G|-10-10-10-10-10--8--5---10-10-10-10-10--8--5---------8----------------|
D|-10-10-10-10-10--8--5---10-10-10-10-10--8--5--10--10---8--8-8--6-6--5-|
A|-8-8-8-8-8---6--3---8-8-8-8-8---6--3----------------------------------|
E|----------------------------------------------------------------------|

[Intrumental]
(Alex Turner)
e|--------------------------------------------| 
B|--------------------------------------------|
G|-------------12--12-------------------------|
D|-10-10-10-13-12--12---8--10-10-10--8--5--5--| x8
A|-10-10-10-13-10--10---8--10-10-10--8--5--5--|
E|-8--8--8--11----------6--8--8--8---6--3--3--|

(Jamie Cook)
e|-------------------------------------|
B|-------------------------------------|
G|-------------------------------------|
D|-10--8-10--8-------------------------| x8
A|-------------10----10-8----8-10------|
E|------------------------11--------8--| 
                                                                
[Bridge]
(Guitar 1)
e|------|
B|------|
G|------|
D|-10~~-|
A|------|
E|------|
                           
[Intrumental 2 / Outro]
(Alex Turner)
e|------------------------------------------------------------------------------|
B|------------------------------------------------------------------------------|
G|-10-10-10-10-10--8--5---10-10-10-10-10--8--5------8--11-11-11-----8--11-11-11-|
D|-10-10-10-10-10--8--5---10-10-10-10-10--8--5--10--8--11-11-11-10--8--11-11-11-| x3
A|-8-8-8-8-8---6--3---8-8-8-8-8---6--3--10--6--9--9--9--10--6--9--9--9----------|
E|--------------------------------------8---------------8-----------------------|

(Jamie Cook)
e|-------------------------------------|
B|-------------------------------------|
G|-------------------------------------|
D|-10--8-10--8-------------------------| x3
A|-------------10----10-8----8-10------|
E|------------------------11--------8--| 

[Both Guitars]
e|----------------------------|
B|----------------------------|
G|-11-11-11-11-11-11-11-11-11-|
D|-11-11-11-11-11-11-11-11-11-|
A|-9--9--9--9--9--9--9--9--9--|
E|----------------------------|

(Alex Turner)
e|-----------------------------------------------------------------------|
B|-----------------------------------------------------------------------|
G|-10-10-10-10-10--8--5---10-10-10-10-10--8--5---------------------------|
D|-10-10-10-10-10--8--5---10-10-10-10-10--8--5--10--10-x-x--8-x-x--6-6-5-| 
A|-8-8-8-8-8---6--3---8-8-8-8-8---6--3--10--10-x-x--8-x-x--6-6-5---------|
E|--------------------------------------8---8--x-x--6-x-x--4-4-3---------|

(Jamie Cook)
e|---------------------------------------------------------|
B|---------------------------------------------------------|
G|---------------------------------------------------------|
D|-10--8-10--8----------------------------8----------------| 
A|-------------10----10-8----8-10--10--10---8--8-8--6-6--5-|
E|------------------------11-------------------------------|


************************************

| x  Dead note
| ~  Vibrato

************************************

            
            
Suggest correction
Creating personal tab
Creating personal tab
You can edit any tab online and save it as your Personal.

You can edit, replace or remove any tab part or add personal notes – all changes will be seen only by you.

Personal tabs can be accessed anytime from any device, even offline.
Learn more »
comments
print report bad tab
4 comments total. Showing first comments.
+2 reply
st-jenno 20 Sep 05, 2007 09:20 AM

amazing best version the others are rubbish

+1 reply
tennessee90 104 Oct 15, 2011 11:35 PM

great tab! I think it's easier to play the C power chrod on the 8th fret of E instead of the 3rd fret on A

0 reply
amahmud 137 May 25, 2014 11:32 AM

The part after the instrumental section is wrong. The powerchords that Alex plays are much higher. Listen to the tune - you'll hear it.

||-----------------|-----------------|
||-----------------|-----------------|
||---------12------|-15--17--12------|
||-10--13--12------|-15--17--12------|
||-10--13--10------|-13--15--10------|
||-8---11----------|-----------------|


These are just the chords. I doesn't show how many times each chord is played.

guest
You may want to rate the tab now too:
select rating
Wanna post a correction for this tab? Suggest correction