Oops, an error
Loading. Please wait.

Dance Little Liar bass

version 3
version 3

Whole song

Interactive

9,461 views 6 this week
no commentswrite comment
1 2 3 4 5
x 12
add to favorites
×
Save as Personal and add changes to this tab that will be seen only by you. Learn more ›
×
You can save this tab as Personal to edit and correct it or add notes. All changes will be seen only by you. Learn more »
launch autoscroll
font size
0
reset
guitar tuner
edit
Autoscroll
slow
fast
+/-
esc
set tempo
stop
Author
-------------------------------------------------------------------------------
			     Dance Little Liar - Arctic Monkeys
-------------------------------------------------------------------------------

Tabbed By : Ben Judge
Tuning: Standard

Come in at 19 secs

Verse
G|--------------------------------------|
D|--------------------------------------|
A|--------------------------------------|
E|-9-9-9-9-9p74-4-4-2-2-2-2-2/12-12-12--|  x12


Chorus
G|------------------------------------------------------------------|
D|------------------------------------------------------------------|
A|------------------------------------------------------------------|
E|-5-5-5-5-5-5-5-5-5-5-5-5-2-2-2-2-9-9-9-9-9-9-9-9-0-0-0-0-0-0-0-0--|

G|----------------------------------------------------|
D|----------------------------------------------------|
A|----------------------------------------------------|
E|-2-2-2-2-2-2-2-2-0-0-0-0-0-0-0-0-4-4-4-4-4-4-4-4-4--|


Verse
G|--------------------------------------|
D|--------------------------------------|
A|--------------------------------------|
E|-9-9-9-9-9p74-4-4-2-2-2-2-2/12-12-12--|  x4


Solo
G|-------------------------------------------------------------|
D|-------------------------------------------------------------|
A|-14h16-16-16-16-16p14----------------------------------------|
E|---------------------16-16-16\12h14-14-14-14-14p12-12-12-12--|  x4


Verse
G|--------------------------------------|
D|--------------------------------------|
A|--------------------------------------|
E|-9-9-9-9-9p74-4-4-2-2-2-2-2/12-12-12--|  x4


Chorus
G|------------------------------------------------------------------|
D|------------------------------------------------------------------|
A|------------------------------------------------------------------|
E|-5-5-5-5-5-5-5-5-5-5-5-5-2-2-2-2-9-9-9-9-9-9-9-9-0-0-0-0-0-0-0-0--|

G|----------------------------------------------------|
D|----------------------------------------------------|
A|----------------------------------------------------|
E|-2-2-2-2-2-2-2-2-0-0-0-0-0-0-0-0-4-4-4-4-4-4-4-4-4--|


Bridge (basically follow the drums)
G|----------------------------------------------------------|
D|----------------------------------------------------------|
A|-----------------4--44-4-4--44-4-----------------4--44-4--|
E|-2--22-2-2--22-2-----------------2--22-2-2--22-2----------|

G|---------------------------------------------------------------|
D|---------------------------------------------------------------|
A|-7--77-7-9--99-9-9--99-9-7--77-7-7--77-7-7--77-7-7--77-7-------|
E|---------------------------------------------------------4--4--|

G|-----------------|
D|-----------------|
A|---------/4------|
E|------------2-4--|


Come in with the drums
G|-----------------------|
D|-----------------------|
A|-4444447-4444447-4447--|
E|-----------------------|  x8


Chorus (slightly different structure)
G|------------------------------------------------------------------------|
D|------------------------------------------------------------------------|
A|------------------------------------------------------------------------|
E|-5-5-5-5-5-5-5-5-5-5-5-5-2-2-2-2-9-9-12-9-9-12-9-12-9-9-12-9-9-12-9-12--|

G|------------------------------------------------------------------------|
D|------------------------------------------------------------------------|
A|------------------------------------------------------------------------|
E|-2-2-2-2-2-2-2-2-2-2-2-2-0-0-0-0-9-9-12-9-9-12-9-12-9-9-12-9-9-12-9-12--|

G|------------------------------------------------------------------|
D|------------------------------------------------------------------|
A|------------------------------------------------------------------|
E|-5-5-5-5-5-5-5-5-5-5-5-5-2-2-2-2-9-9-9-9-9-9-9-9-9-9-9-9-0-0-0-0--|

G|----------------------------------------------------|
D|----------------------------------------------------|
A|----------------------------------------------------|
E|-2-2-2-2-2-2-2-2-2-2-2-2-0-0-0-0-4-4-4-4-4-4-4-4-4--| 





| /  slide up
| \  slide down
| h  hammer-on
| p  pull-off
| ~  vibrato
| +  harmonic
| x  Mute note
===============================================================================

            
            
Suggest correction
Creating personal tab
Creating personal tab
You can edit any tab online and save it as your Personal.

You can edit, replace or remove any tab part or add personal notes – all changes will be seen only by you.

Personal tabs can be accessed anytime from any device, even offline.
Learn more »
comments
print report bad tab
guest
You may want to rate the tab now too:
select rating
Wanna post a correction for this tab? Suggest correction