Oops, an error
Loading. Please wait.
We have an official Dancing Shoes tab made by UG professional guitarists. Check out the tab »
×
49,866 views 45 this week
7 commentsread comments
1 2 3 4 5
x 39
add to favorites
×
Save as Personal and add changes to this tab that will be seen only by you. Learn more ›
×
You can save this tab as Personal to edit and correct it or add notes. All changes will be seen only by you. Learn more »
launch autoscroll
font size
0
reset
guitar tuner
edit
Autoscroll
slow
fast
+/-
esc
set tempo
stop
Author
Difficulty
[Verse 1]

G|----------------------------------------------------------------------|
D|--------4----------------4--------------------------------------------|
A|----------6----------------6------4-4-4--6-4---7-7-7--9-7-------------|
E|---4-4------7-6----4-4-----7-------------------------------------x4---|

[Chorus]
G|------------------------------|
D|------------------------------|
A|----------4--2----------------|
E|----4--2--------4--------x4---|

[Verse 2]
G|--------------------------------------------------------------------|
D|--------------------------------------------------------------------|
A|-----------------------------------4-4-4--6-4---7-7-7--9-7----------|
E|---4-4-4--2-4---4-4-4--2-4--------------------------------------x2--|

G|-----------------------------------------------------------------------|
D|-----------------------------------------------------------------------|
A|----------------2-----------------4-4-4--6-4---7-7-7--9-7--------------|
E|---4-4-4--2-4---4-4-4--2-4---------------------------------------------|

G|--------------------------------------------------------------------|
D|--------------------------------------------------------------------|
A|-----------------------------------4-4-4--6-4---7-7-7--9-7----------|
E|---4-4-4--2-4---4-4-4--2-4------------------------------------------|

[Chorus] x4
G|------------------------------|
D|------------------------------|
A|----------4--2----------------|
E|----4--2--------4--------x4---|

[Guitar Solo]
G|--------------------------------------------------------------------|
D|--------------------------------------------------------------------|
A|-----------------------------------4-4-4--6-4---7-7-7--9-7----------|
E|---4-4-4--2-4---4-4-4--2-4---------------------------------------x4-|

[Outro]
G|----------------------------------------------------------------------|
D|--------4----------------4--------------------------------------------|
A|----------6----------------6------4-4-4--6-4---7-7-7--9-7-------------|
E|---4-4------7-6----4-4-----7---------------------------------------x2-|

G|---------------------------------------------------------------------------------------|
D|---------------------------------------------------------------------------------------|
A|-----------------------4-4-4-4-7-7-7-7--------------------4-4-4-4-7-7-7-7--------------|
E|---4-4-4-4-4-4-4-4---------------------4-4-4-4-4-4-4-4---------------------------------|

G|----------------------------------------------------|
D|----------------------------------------------------|
A|----------------------------------------------------|
E|--4-4-4--2-4--4-4-4--2-4--4-4-4--2-4--4-4-4--3-2-4--|


************************************

| x  Dead note

************************************

            
            
Suggest correction
Creating personal tab
Creating personal tab
You can edit any tab online and save it as your Personal.

You can edit, replace or remove any tab part or add personal notes – all changes will be seen only by you.

Personal tabs can be accessed anytime from any device, even offline.
Learn more »
comments
print report bad tab
7 comments total. Showing first comments.
0 reply
A_GOOD_TABBER 145 Sep 29, 2006 01:53 PM

great tab! Perfect 5!

0 reply
ArcticMonk 10 Apr 23, 2007 09:16 AM

Great job man another great tab.

+1 reply
gero13 10 May 12, 2007 08:37 AM

perfect tab.....the only thing is that Bb note at the end of that riff....i've listened to it and cant seem to hear that note.....i think it sounds really good and is a good addition to put in when playing it....nevertheless really good 5*

G|-----------------
D|--------4--------
A|----------6------
E|---4-4------7-6--

guest
You may want to rate the tab now too:
select rating
Wanna post a correction for this tab? Suggest correction