Oops, an error
Loading. Please wait.
We have an official Dancing Shoes tab made by UG professional guitarists. Check out the tab »
×
69,903 views 33 this week
10 commentsread comments
1 2 3 4 5
x 37
add to favorites
×
Save as Personal and add changes to this tab that will be seen only by you. Learn more ›
×
You can save this tab as Personal to edit and correct it or add notes. All changes will be seen only by you. Learn more »
launch autoscroll
font size
0
reset
how to read this tab
guitar tuner
edit
Autoscroll
slow
fast
+/-
esc
set tempo
stop
Author
This is my first tab, any feedback appreciated, email friskyfleabag@aol.com

Listen to song for timing etc.

Tabbed by Ben Wright

 [Intro] ('Get on your dancing shoes'):
e|---------------------------------------------------|
B|---------------------------------------------------|
G|---------------------------------------------------|   
D|-----4--1--------4--1------------------2-2-2--4-2--|  x4
A|----------2-----------2---4-4-4--6-4---------------|
E|-4-4---------4-4-----------------------------------|

 [Chorus] ('The only reason that you came'):
e|------------------------------------------------------|
B|------------------------------------------------------|
G|-------6--4------------------------6--4---------------|
D|-6--4--4--4--6---------------6--4--4--4--6------------|  
A|-6--4--4--2--4---------------6--4--4--2--4------------|
E|-4--2--------4-4-4--2-4------4--2--------4-4-4--4-4---|

e|------------------------------------------------------|
B|------------------------------------------------------|
G|-------6--4------------------------6--4---------------|
D|-6--4--4--4--6---------------6--4--4--4--6------------|  
A|-6--4--4--2--4---------------6--4--4--2--4------------|
E|-4--2--------4-4-4--2-4------4--2--------4------------|

 [Verse] ('The lights are flashing'):
e|---------------------------------------------------------|
B|---------------------------------------------------------|
G|---------------------------------------------------------|
D|----------------------------------------2-2-2--4-2-------|  x2
A|---------------------------4-4-4--6-4--------------------|
E|-4-4-4--2-4---4-4-4--2-4---------------------------------|

 On 3rd time there's 1 extra note ('Don't act like it's not happening'):
e|---------------------------------------------------------|
B|---------------------------------------------------------|
G|---------------------------------------------------------|
D|----------------------------------------2-2-2--4-2-------|  
A|------------2--------------4-4-4--6-4--------------------|
E|-4-4-4--2-4---4-4-4--2-4---------------------------------|

 Then 4th time back to normal ('To go and mention your name'):
e|---------------------------------------------------------|
B|---------------------------------------------------------|
G|---------------------------------------------------------|
D|----------------------------------------2-2-2--4-2-------|  
A|---------------------------4-4-4--6-4--------------------|
E|-4-4-4--2-4---4-4-4--2-4---------------------------------|

 [Chorus] ('The only reason that you came'):
e|------------------------------------------------------|
B|------------------------------------------------------|
G|-------6--4------------------------6--4---------------|
D|-6--4--4--4--6---------------6--4--4--4--6------------|  
A|-6--4--4--2--4---------------6--4--4--2--4------------|
E|-4--2--------4-4-4--2-4------4--2--------4-4-4--4-4---|

e|------------------------------------------------------|
B|------------------------------------------------------|
G|-------6--4------------------------6--4---------------|
D|-6--4--4--4--6---------------6--4--4--4--6------------|  
A|-6--4--4--2--4---------------6--4--4--2--4------------|
E|-4--2--------4-4-4--2-4------4--2--------4------------|

 Backing guitar for solo (haven't worked out solo yet, watch this space):
e|--------------------------------------------------------------------------|
B|--------------------------------------------------------------------------|
G|---------------------------------6-6-6-6-6-6-6-6-9-9-9-9-9-9-9-9----------|
D|-6-6-6-6-6-6-6-6-6-6-6-6-6-6-6-6-6-6-6-6-6-6-6-6-9-9-9-9-9-9-9-9----------| x4
A|-6-6-6-6-6-6-6-6-6-6-6-6-6-6-6-6-4-4-4-4-4-4-4-4-7-7-7-7-7-7-7-7----------|
E|-4-4-4-4-4-4-4-4-4-4-4-4-4-4-4-4------------------------------------------|

 Then back to intro ('Get on your dancing shoes'):
e|---------------------------------------------------|
B|---------------------------------------------------|
G|---------------------------------------------------|   x2
D|-----4--1--------4--1------------------2-2-2--4-2--|
A|----------2-----------2---4-4-4--6-4---------------|
E|-4-4---------4-4-----------------------------------|

 'Oh and the shit, shock horror' (short pause between each chord)
e|---------------------------------------------------|
B|---------------------------------------------------|
G|------------------6-6-6-6-9-9-9-9------------------|   
D|--6-6-6-6-6-6-6-6-6-6-6-6-9-9-9-9------------------|  x2
A|--6-6-6-6-6-6-6-6-4-4-4-4-7-7-7-7------------------|
E|--4-4-4-4-4-4-4-4----------------------------------|

 [Outro]
e|-----------------------------------------------------------|
B|-----------------------------------------------------------|
G|-----------------------------------------------------------|   
D|--6-6-6--4-6-----6-6-6--4-6-----6-6-6--4-6-----6-6-6--4-6--|
A|--6-6-6--4-6-----6-6-6--4-6-----6-6-6--4-6-----6-6-6--4-6--|
E|--4-4-4--2-4-----4-4-4--2-4-----4-4-4--2-4-----4-4-4--2-4--|

            
            
Suggest correction
Creating personal tab
Creating personal tab
You can edit any tab online and save it as your Personal.

You can edit, replace or remove any tab part or add personal notes – all changes will be seen only by you.

Personal tabs can be accessed anytime from any device, even offline.
Learn more »
comments
print report bad tab
10 comments total. Showing first comments.
+1 reply
dave_mullen 249 Oct 10, 2005 11:04 PM

thats mad, my dancing shoes tab came out same day as yours and they are almost identical.
iv gave you 5 stars because i know yours is right too.

Next objective... Solo

0 reply
baa 10 Apr 15, 2006 02:47 PM

great tab! all you need now is the solo ;)

0 reply
renie91 20 May 25, 2006 12:55 AM

awesome tab! heaps awesome for your first! hanging out for the solo..

guest
You may want to rate the tab now too:
select rating
Wanna post a correction for this tab? Suggest correction