Oops, an error
Loading. Please wait.

Dangerous Animals bass

version 1
version 1

Whole song

Interactive

14,572 views 12 this week
3 commentsread comments
1 2 3 4 5
x 5
add to favorites
×
Save as Personal and add changes to this tab that will be seen only by you. Learn more ›
×
You can save this tab as Personal to edit and correct it or add notes. All changes will be seen only by you. Learn more »
launch autoscroll
font size
0
reset
guitar tuner
edit
Autoscroll
slow
fast
+/-
esc
set tempo
stop
Author
Difficulty
intermediate
-------------------------------------------------------------------------------
	 	    DANGEROUS ANIMALS - Arctic Monkeys
-------------------------------------------------------------------------------

//updated February 5th 2010; should be perfect now.

Intro/first verse
G|--------------|
D|--------------|
A|----6--4h5----|
E|-3---6-----4--|

One time there's a pause
G|------------|
D|------------|
A|----6--5----|
E|-3---6------|

little interruption
G|----------------|
D|----------------|
A|-4-5---4-5------|
E|-----4-----4----|

prechorus
G|------------------------------------|
D|------------------------------------|
A|---6--4h5--6--3~-----6~----1~----3--|
E|-3--6-------------------------------|

chorus
G|----------------------------|
D|--------------------4-55555-|
A|-1---1-3-1---1-3------------|
E|---3-------1----33----------|

verse.
G|--------------|
D|--------------|
A|----6--4h5----|
E|-3---6-----4--|

second verse interruption
G|---------|
D|---------|
A|-453453--|
E|---------|

after interruption, bassline changes into:
G|---------------------------------------------|
D|------5-8--------5---------5-6-------5-------|
A|-------------------6-------------------4h5---|
E|-3--6------3--6-------3--6------3--6---------|

interruption
G|----------------|
D|-----------6-5--|
A|---6---4-5------|
E|-3---6----------|

bass returns to normal verse:
G|--------------|
D|--------------|
A|----6--4h5----|
E|-3---6-----4--|

little interruption
G|----------------|
D|----------------|
A|-4-5---4-5------|
E|-----4-----4----|

G|------------------------|
D|------5-8--------5------|
A|-------------------6----|
E|-3--6------3--6---------|

Continues with normal bassline:
G|--------------|
D|--------------|
A|----6--4h5----|
E|-3---6-----4--|

prechorus
G|------------------------------------|
D|------------------------------------|
A|---6--4h5--6--3~-----6~----1~----3--|
E|-3--6-------------------------------|

chorus
G|----------------------------|
D|--------------------4-55555-|
A|-1---1-3-1---1-3------------|
E|---3-------1----33----------|

Right before the bridge
G|------------------------------------|
D|------------------------------------|
A|------5-------------17---------5----|
E|-3333---4--15151515---16--3333---4--|
15, not 1 and 5

bridge (listen for timing)
G|--------------------------|
D|--------------------------|
A|--------------------------|
E|-3----3-3-----3----3-3----|

verse.
G|--------------|
D|--------------|
A|----6--4h5----|
E|-3---6-----4--|

interruption
G|---------|
D|---------|
A|-45-45---|
E|---6--4--|

and another interruption
G|----------------|
D|-----------6-5--|
A|---6---4-5------|
E|-3---6----------|

end
G|---------------|
D|---------------|
A|---6---4h5-----|
E|-3---6---------|
Suggest correction
Creating personal tab
Creating personal tab
You can edit any tab online and save it as your Personal.

You can edit, replace or remove any tab part or add personal notes – all changes will be seen only by you.

Personal tabs can be accessed anytime from any device, even offline.
Learn more »
comments
print report bad tab
3 comments total.
-2 reply
Hurm 615 Jan 17, 2010 08:56 AM

Nice tab, but I think it should not be:

chorus
G|----------------------------|
D|--------------------4-55555-|
A|-------3-------3------------|
E|-3-1-3---3-1-3---33---------|


but should be:
chorus
G|-----------------------------|
D|---------------------4-55555-|
A|-------6-------4-------------|
E|-6-3-6---4-1-4---3-1---------|

+1 reply
beast of pie 311 Apr 27, 2010 10:12 AM

Judging from what I've seen of this live I think after the interruption is done like this:

G|-------------------------------------------------|
D|-------------------------------------------------|
A|----/10-13\-----/10---------/10-11\-----/10-4h5--|
E|-3-----------3------11\--3-----------3-----------|

and before the bridge is:

G|------------------------------------|
D|------------------------------------|
A|------5-------------17---------5----|
E|-3313---4--15151315---16--3313---4--|

other than that sorted tab mate

0 reply
mistermaster22 10 Mar 08, 2014 07:26 AM

it's good fur me :D

guest
You may want to rate the tab now too:
select rating
Wanna post a correction for this tab? Suggest correction