Oops, an error
Loading. Please wait.

Dangerous Animals tab

version 1
version 1

Whole song

Interactive

57,423 views 54 this week
5 commentsread comments
1 2 3 4 5
x 11
add to favorites
×
Save as Personal and add changes to this tab that will be seen only by you. Learn more ›
×
You can save this tab as Personal to edit and correct it or add notes. All changes will be seen only by you. Learn more »
launch autoscroll
font size
0
reset
how to read this tab
guitar tuner
edit
Autoscroll
slow
fast
+/-
esc
set tempo
stop
Author
Difficulty
Tabbers playing skills
intermediate
intermediate ++
Band: Arctic Monkeys
Song: Dangerous Animals
Album: Humbug

[Intro]

gtr. 1:

e|-------------------------------|
B|-------------------------------|
G|-------------------------------|   
D|-------------------------------|
A|-------6-------4-5-------------|
E|3----------6-----------4-------|

gtr. 2:

e|18~~~--------------------------|
B|-------------------------------|
G|-------------------------------|
D|-------------------------------|
A|-------------------------------|
E|-------------------------------|

[Verse]

gtr. 1 repeats Intro Riff
gtr. 2 only plays occasionally

at 0:33:
e|-------------------------------|
B|-------------------------------|
G|-------------------------------|   
D|-------------------------------|
A|-------6-------4-5----4-5------|
E|3----------6-------4-------4---|

last bar in verse:

gtr. 1:

e|-------------------------------|
B|-------------------------------|
G|-------------------------------|   
D|-------------------------------|
A|-------6-------4-5-----6-------|
E|3----------6-------------------|

gtr. 2:

e|-------------------------------|
B|-------------------------------|
G|-----------------------8-------|   
D|-------------------------------|
A|-------------------------------|
E|-------------------------------|

[Pre-Chorus]

gtr. 1:
e|----------------------------------------------------------------|
B|----------------------------------------------------------------|
G|----------------------------------------------------------------|
D|---------------1------------------------------------------------|
A|3-------------------------------1-----------------------3-------|
E|----------------------------------------------------------------|

gtr. 2:
e|----------------------------------------------------------------|
B|----------------------------------------------------------------|
G|5------------------------------/15~~~~~~------------------------|
D|----------------------------------------------------------------|
A|----------------------------------------------------------------|
E|----------------------------------------------------------------|

[Chorus]

gtr. 1:

          A_____  N - I - M - A - L               makes   my 
e|----------------------------------------------------------------|
B|----------------------------------------------------------------|
G|----------------------------------------------------------------|
D|----------------------------------------------------------------|
A|1-------1---3---1-------1---3-----------------------------------|
E|----3---------------1-----------3---3---1---3---3---3---3---3---|

  head    pi-rou-ette                             more    than
e|----------------------------------------------------------------|
B|----------------------------------------------------------------|
G|----------------------------------------------------------------|
D|----------------------------------------------------------------|
A|1-------1---3---1-------1---3-----------------------------------|
E|----3---------------1-----------3---3---1---3---3---3---3---3---|

      I would be wil-ling to con-fess             D   -   A   -
e|----------------------------------------------------------------|
B|----------------------------------------------------------------|
G|----------------------------------------------------------------|
D|----------------------------------------------------------------|
A|1-------1---3---1-------1---3-----------------------------------|
E|----3---------------1-----------3---3---1---3---3---3---3---3---|

  N   -   G - E - R   -   O - U - S
e|----------------------------------------------------------------|
B|----------------------------------------------------------------|
G|----------------------------------------------------------------|
D|----------------------------------------------------------------|
A|1-------1---3---1-------1---3-------------------5-------3-------|
E|----3---------------1-----------3---3---1---3-------------------|

gtr. 2: plays those hammer-ons throughout the whole chorus

e|----------------------------------------------------------------|
B|----------------------------------------------------------------|
G|--------3-h-5-----------3-h-5-----------------------------------|
D|----------------------------------------3-h-5-------------------|
A|----------------------------------------------------------------|
E|----------------------------------------------------------------|

AFTER CHORUS 1: only guitar 2 + bass + drums

starting at C note of last guitar one Chorus bar
e|--------|-------------------------------------------------------|
B|--------|-------------------------------------------------------|
G|--------|-------------------------------------------------------|
D|--------|5----------------------------------------------3-------|
A|3-------|---------------------------------------6---------------|
E|--------|-------------------------------------------------------|

e|----------------------------------------------------------------|
B|----------------------------------------------------------------|
G|----------------------------------------------------------------|
D|----------------------------------------------------------------|
A|5---------------------------------------------------------------|
E|----------------------------------------------------------------|

e|----------------------------------------------------------------|
B|----------------------------------------------------------------|
G|----------------------------------------------------------------|
D|5-----------------------------------------------3---------------|
A|------------------------------------------------------------6---|
E|----------------------------------------------------------------|

e|----------------------------------------------------------------|
B|----------------------------------------------------------------|
G|----------------------------------------------------------------|
D|----------------------------------------------------------------|
A|5-----------------------------------------------4--5--3--4h5----|
E|----------------------------------------------------------------|

[Verse 2]

only guitar 2 

"audience" bit
e|------------------|
B|------------------|
G|12---10-----13-12-|
D|--12---10/12------|
A|------------------|
E|------------------|

then: repeated several times
e|----------------------------------------------------------------|
B|----------------------------------------------------------------|
G|12--------------------------------------------------------------|
D|----------------------13------12--------------------------------|
A|----------------------------------------------------------------|
E|----------------------------------------------------------------|

last bars of Verse 2 ("the acrobat"):
e|----------------------------------------------------------------|
B|----------------------------------------------------------------|
G|12--------------------------------------------------------------|
D|----------------------13------12------------------------13------|
A|----------------------------------------------------------------|
E|----------------------------------------------------------------|

e|----------------------------------------------------------------|
B|----------------------------------------------------------------|
G|----------------------------------------------------------------|
D|12-------------------13-------12------------------------13------|
A|-------------------------------------------------------[6]------|
E|----------------------------------------------------------------|

note in brackets played by guitar 1  (start of pre-chorus)

[Pre-Chorus]
[Chorus 2]

AFTER CHORUS 2: 

gtr. 1:
e|--------------------------------|
B|--------------------------------|
G|--------------------------------|
D|--------------------------------|  repeated
A|----------------5-------0-------|
E|3---3---1---3-------------------|

then:

gtr. 1: dont let the chords ring out  - listen for proper timing

e|----------------------------------------------------------------|
B|----------------------------------------------------------------|
G|----------------------------------------------------------------|
D|8-----------------------8------8--------------------------------|x6
A|5-----------------------5------5--------------------------------|
E|6-----------------------6------6--------------------------------|

gtr. 2:

e|----------------------------------------------------------------|
B|----------------------------------------------------------------|
G|----------------------------------------------------------------|
D|----------------------------------------------------------------| 
A|----------------------------------------------------------------|
E|3---------------------------------------------------------------|

^^ x2 let ring into second bar

then: 
e|----------------------------------------------------------------|
B|8---------------------------------------------------------------|
G|---------------------8-------7----------------------------------|
D|----------------------------------------------------------------|
A|----------------------------------------------------------------|
E|----------------------------------------------------------------|

^^ x4

[SOLO:]
 you've definitely got to listen to the song to get the timing right

gtr. 2:
e|----|-------------------------------------------------------------------|
B|----|-------------6---5---/9--8-----6-8-----13b(15)r13-15-11-13---8h9---|
G|----|-------------------------------------------------------------------|
D|6---|5---3-5------------------------------------------------------------|
A|----|---------5---------------------------------------------------------|
E|----|-------------------------------------------------------------------|

e|--------------------------------------------------------------------------|
B|8-------------------------------------------------------------------------|
G|----------6-7---6-7---------------------------5-5b(6)r5---5h6p5-----------|
D|--------------8-----6-5-------6-8---6---x-5-8---------------------8-------|
A|--------------------------------------------------------------------------|
E|--------------------------------------------------------------------------|

e|-----------------------|
B|8----------------------|
G|--5---5-6--------------|
D|----8-----6-5----------|
A|-----------------------|
E|-----------------------|

gtr. 1: repeats this 
e|-------------------------------|
B|-------------------------------|
G|-------------------------------|   
D|-------------------------------|
A|-------6-------4-5-------------|
E|3----------6-----------4-------|


and plays the following two gtr. 2 parts in the solo an octave lower

gtr. 2                     gtr. 1
e|-----------------------| e|--------------| 
B|-----------------------| B|--------------|
G|6-7---6-7--------------| G|--------------|
D|----8-----6-5----------| D|--------------|
A|-----------------------| A|4-5---4-5-----|
E|-----------------------| E|----6-----4-3-|

e|-----------------------| e|--------------|
B|8----------------------| B|--------------|
G|--5---5-6--------------| G|--------------| 
D|----8-----6-5----------| D|5-------------|
A|-----------------------| A|--3---3-4-----|
E|-----------------------| E|----6-----4-3-|

After the solo the main riff is repeated until the end of the song


************************************

| ~    Vibrato
| /    Slide up
| h    Hammer-on
| [n]  Artificial harmonic (Pinch harmonic)
| p    Pull-off
| x    Dead note 

************************************
Suggest correction
Creating personal tab
Creating personal tab
You can edit any tab online and save it as your Personal.

You can edit, replace or remove any tab part or add personal notes – all changes will be seen only by you.

Personal tabs can be accessed anytime from any device, even offline.
Learn more »
comments
print report bad tab
5 comments total. Showing first comments.
+1 reply
libertines4ever 648 Sep 08, 2009 11:38 AM

I think some tiny bits in the solo are wrong I'm gonna update as soon as possible

0 reply
Ryan15693 52 Dec 14, 2009 07:26 AM

The chorus is actually:

e|----------------------------------------------------------------|
B|----------------------------------------------------------------|
G|----------------------------------------------------------------|
D|----------------------------------------------------------------|
A|1-------1-------------------------------------------------------|
E|----3-------3---4---1---4---1---3---3---1---3---3---3---3---3---|

Or as how I prefer to play it;

e|----------------------------------------------------------------|
B|----------------------------------------------------------------|
G|----------------------------------------------------------------|
D|----------------------------------------------------------------|
A|----------------------------------------------------------------|
E|6---3---6---3---4---1---4---1---3---3---1---3---3---3---3---3---|

0 reply
libertines4ever 648 Dec 15, 2009 01:33 AM

ok thanks I'm gonna give it another listen

guest
You may want to rate the tab now too:
select rating
Wanna post a correction for this tab? Suggest correction