Oops, an error
Loading. Please wait.

Despair In The Departure Lounge Tab

version 1
version 1

Whole song

Interactive

196,520 views 390 this week
19 commentsread comments
1 2 3 4 5
excellent!
x 109
add to favorites
launch autoscroll
font size
0
reset
how to read this tab
guitar tuner
Autoscroll
slow
fast
+/-
esc
set tempo
stop
Help us to improve Ultimate-Guitar.com Take our survey!
×
Difficulty
intermediate
ARCTIC MONKEYS
"Despair In The Departure Lounge" (Alex Turner)
EP: Who The Fuck Are Arctic Monkeys?
Tab: Mateus Pranzetti


[Intro]

e|-2--2-2-2---5-5-7-7--9---2-2-2-2--5-5-7-7--9---|
B|-3--3-3-3---7-7-9-9-10---2-2-2-2--7-7-9-9-10---|
G|-2----2-2----------------2-2-2-2---------------|
D|-0----0-0----------------4-4-4-4---------------|
A|-------------------------4-4-4-4---------------|
E|-------------------------2-2-2-4---------------|

e|-0-0-0-0--5-5-7-7--9---0-0-0-0---9-7-7-5-5--|
B|-0-0-0-0--7-7-9-9-10---2-2-2-2--10-9-9-7-7--|
G|-0-0-0-0---------------0-0-0-0--------------|
D|-2-2-2-2---------------2-2-2-2--------------|
A|-2-2-2-2---------------0-0-0-0--------------|
E|-0-0-0-0------------------------------------|


 D
He's pining for her
 F#m
In a people carrier 
 Em
There might be buildings and pretty things to see like that
 A7
But architecture won't do 
       D
Although it might say a lot about the city or town
 F#m
I don't care what they've got keep on turning them down 
   Em
It don't say the funny things she does
            A7
Don't even try and cheer him up, because
                D
It just won't happen 


[Intro]

e|-2--2-2-2---5-5-7-7--9---2-2-2-2--5-5-7-7--9---|
B|-3--3-3-3---7-7-9-9-10---2-2-2-2--7-7-9-9-10---|
G|-2----2-2----------------2-2-2-2---------------|
D|-0----0-0----------------4-4-4-4---------------|
A|-------------------------4-4-4-4---------------|
E|-------------------------2-2-2-4---------------|

e|-0-0-0-0--5-5-7-7--9---0-0-0-0---9-7-7-5-5--|
B|-0-0-0-0--7-7-9-9-10---2-2-2-2--10-9-9-7-7--|
G|-0-0-0-0---------------0-0-0-0--------------|
D|-2-2-2-2---------------2-2-2-2--------------|
A|-2-2-2-2---------------0-0-0-0--------------|
E|-0-0-0-0------------------------------------|

 D
He's got the feeling again
  F#m
This time on the aeroplane 
       Em
There might be tellys in the back of the seats in front
  A7
But Rodney and Del won't do 
 D
Although it might take your mind off the aches and the pains
   F#m
Laugh when he falls through the bar. But you're feeling the same 
 Em
'Cause she isn't there to hold your hand
    A7
She won't be waiting for you when you land 

                   Bm             G
It feels like she's just nowhere near 
 Bm                            G
You could well be out on your ear 
 Bm                                        E
This thought comes closely followed by the fear 
          G       F#m
And the thought of it
 Em        A7
Makes you feel a bit.
(PAUSA)
Ill 

[Ponte] 

D  F#m  Em  A7

 
[Solo]

   D                  F#m                    Em              A7
e|-7---------7----------7---------7----------------------------------|
B|---10-8-7----10-8-7-----10-8-7----10-8-7--7------------------10----|
G|--------------------------------------------9~--9-7-9-9--7-9----9--|
D|-------------------------------------------------------------------|
A|-------------------------------------------------------------------|
E|-------------------------------------------------------------------|

 D
Yesterday I saw a girl
           F#m                           Em
Who looked like someone you might knock about with
               A7
And almost shouted 
         D
And then reality kicked in within us
     F#
It seems as we become the winners 
                    Em
You lose a bit of summat
  A7         
And half wonder if you won it at all

 (PAUSA)       Bm                 G 
And don't say 'owt 'cause you've got no idea 
 Bm                       G
And she's still nowhere near 
 Bm                                       E
And the thought comes closely followed by the fear 
          G      F#m
And the thought of it
 Em        A7
Makes you feel a bit
 (PAUSA)
...Ill 

   D
Despair in the departure lounge
 F#m                                   Em
It's one and they'll still be around at three 
                 A7
No signal and low battery 
 (PAUSA)
What's happened to me?



************************************

| ~  Vibrato

************************************
Suggest correction
comments
print report bad tab
19 comments total. Showing first comments.
+11 reply
armitage_cake 10 wrote on May 11 2006, 03:51 pm

what a ****in awesome song

+1 reply
n_creep 51 wrote on June 24 2006, 06:11 pm

nicely done!

+1 reply
scumm 83 wrote on September 9 2006, 03:12 pm

great song, great tab!

guest
You may want to rate the tab now too:
select rating
Wanna post a correction for this tab? Suggest correction