Oops, an error
Loading. Please wait.

Diamonds Are Forever intro tab

version 1
version 1

Intro

Whole song

Interactive

7,881 views 1 this week
1 commentread comment
1 2 3 4 5
x 3
add to favorites
×
Save as Personal and add changes to this tab that will be seen only by you. Learn more ›
×
You can save this tab as Personal to edit and correct it or add notes. All changes will be seen only by you. Learn more »
launch autoscroll
font size
0
reset
how to read this tab
guitar tuner
edit
Autoscroll
slow
fast
+/-
esc
set tempo
stop
Author
Difficulty
right this is from their performance at glastonbury 2007 and i got frustrated only 
the chords for the song so here's the lead intro part that Alex plays.

E|---9----------------------------------------------------------|
B|-7----9-7-9-8-9-10--------------------------------------------|
G|--------------------------------------------------------------|  Play twice
D|--------------------------------------------------------------|
A|--------------------------------------------------------------|
E|--------------------------------------------------------------|

E|---9----------------------------------------------------------|
B|-7----9-7-9-8-9-10--------------------------------------------|
G|--------------------------------------------------------------|  Play twice
D|--------------------------------------------------------------|
A|--------------------------------------------------------------|
E|--------------------------------------------------------------|

Then repeat the above
Later on the riff changes to

E|---9----------------------------------------------------------|
B|-5----9-7-9-8-9-10--------------------------------------------|
G|--------------------------------------------------------------|
D|--------------------------------------------------------------|
A|--------------------------------------------------------------|
E|--------------------------------------------------------------|

Hope thats ok, havent been able to figure out the rest of the riff because the chords 
bass comes in.

            
            
Suggest correction
Creating personal tab
Creating personal tab
You can edit any tab online and save it as your Personal.

You can edit, replace or remove any tab part or add personal notes – all changes will be seen only by you.

Personal tabs can be accessed anytime from any device, even offline.
Learn more »
Give kudos to tab author, rate the tab!
1 2 3 4 5
comments
print report bad tab
1 comment total.
0 reply
naggers 85 Sep 25, 2007 07:14 AM

those wer my chords u were frustrated in boy

guest
You may want to rate the tab now too:
select rating
Wanna post a correction for this tab? Suggest correction