Oops, an error
Loading. Please wait.

Do I Wanna Know Tab

version 3
version 3

Intro

  • Some of the top rated tabs on this song seem to be... Show more

Interactive

Video

220 views 6 this week
no commentswrite comment
1 2 3 4 5
2 more votes to show rating
add to favorites
launch autoscroll
font size
0
reset
how to read this tab
guitar tuner
Autoscroll
slow
fast
+/-
esc
set tempo
stop
Help us to improve Ultimate-Guitar.com Take our survey!
×
Author
Difficulty
novice
About this tab version
Some of the top rated tabs on this song seem to be simplified, but this one goes a little more in depth. It sounds good, even on the acoustic guitar. Was this info helpful? Yes No
[Intro]

e|---------------------------------------------------------------------------|
B|---------------------------------------------------------------------------|
G|---------------------------------------------------------------------------|
D|----------------------------------1/3---3\1--------------------------------|
A|-----------1------------------1---------------3/5---5\3-------3---5---3----|
E|---1---3-------3------1---3-------------------------------6----------------|

e|---------------------------------------------------------------------------|
B|---------------------------------------------------------------------------|
G|---------------------------------------------------------------------------|
D|---------------------------------------------------------------------------|
A|------3h5--3h5-------------------------------------------------------------|
E|--6--------------3---------------------------------------------------------|

Intro is repeated 5 times.

Notes: If you are unfamiliar with the rhythms, slides, and finger placement; check out
Drue James's video tutorial on this song:
(https://www.youtube.com/watch?v=1Xw13R3JnTw)
*I DO NOT OWN THIS VIDEO*

Once learned, you may come here for simple reference. 
************************************

| h   Hammer-on
| /   Slide up
| \   Slide down
Suggest correction
Give kudos to tab author, rate the tab!
1 2 3 4 5
comments
print report bad tab
guest
You may want to rate the tab now too:
select rating
Wanna post a correction for this tab? Suggest correction