Oops, an error
Loading. Please wait.
We have an official Do I Wanna Know tab made by UG professional guitarists. Check out the tab »
×
6,301 views 18 this week
2 commentsread comments
1 2 3 4 5
x 6
add to favorites
×
Save as Personal and add changes to this tab that will be seen only by you. Learn more ›
×
You can save this tab as Personal to edit and correct it or add notes. All changes will be seen only by you. Learn more »
launch autoscroll
font size
0
reset
guitar tuner
backing track
0:00
0:00
edit
Autoscroll
slow
fast
+/-
esc
set tempo
stop
Author
Difficulty
G|-------------------------------------------------|
D|-------------------------------------------------|
A|---------6--3---5---------------6--3---5---------|    X2
E|-3---------------3-------3---------------3-------|
 

G|-------------------------------------------------|
D|-------------------------------------------------|
A|---------6--3---5---------------6--3-------5-----|    X1
E|-3---------------3-------3-----------------------|


G|-------------------------------------------------|
D|-------------------------------------------------|
A|-10-6-----3-5-6-5-3--1-3----1-3/5--------1-------|    X1
E|---------------------------------3----1/3--3-----|


G|-------------------------------------------------|
D|-------------------------------------------------|
A|-10-6-----3-5-6-5-3--1-3-------------------------|    X1
E|-------------------------------3---------3-------|


G|-------------------------------------------------|
D|-------------------------------------------------|
A|------1-------1-8-6--5-3--1-3-5-3---1-3-5-5------|    X2
E|-1/3-----1/3--------------------------------3----|


G|-------------------------------------------------|
D|-------------------------------------------------|
A|---------6--3---5---------------6--3---5---------|    X1
E|-3---------------3-------3---------------3-------|


G|-------------------------------------------------|
D|-------------------------------------------------|
A|---------6--3---5---------------6--3---5---------|    X1
E|-3---------------3-------3---------------3-------|


G|-------------------------------------------------|
D|-------------------------------------------------|
A|---------6--3---5---------------6--3-------5-----|    X1
E|-3---------------3-------3-----------------------|


G|-------------------------------------------------|
D|-------------------------------------------------|
A|-10-6-----3-5-6-5-3--1-3----1-3/5--------1-------|    X2
E|---------------------------------3----1/3--3-----|


G|-------------------------------------------------|
D|-------------------------------------------------|
A|------1-------1-8-6--5-3--1-3-5-3---1-3-5-5------|    X2
E|-1/3-----1/3--------------------------------3----|


G|-------------------------------------------------|
D|-------------------------------------------------|
A|-10-6-----3-5-6-5-3--1-3----1-3/5--------1-------|    X2
E|---------------------------------3----1/3--3-----|


G|-------------------------------------------------|
D|-------------------------------------------------|
A|-10-6-----3-5-6-5-3--1-3----1-3/5--------1-------|    X1
E|---------------------------------3----1/3--1-----|


G|-------------------------------------------------|
D|-------------------------------------------------|
A|-10-6-----3-5-6-5-3--1-3-------------------------|    X1 
E|--------------------------3--1-3-5-3--3--1-3-5-3-|

[-----------------------END------------------------]
BY : SLAVEofmyBASS

            
            
Suggest correction
Creating personal tab
Creating personal tab
You can edit any tab online and save it as your Personal.

You can edit, replace or remove any tab part or add personal notes – all changes will be seen only by you.

Personal tabs can be accessed anytime from any device, even offline.
Learn more »
comments
print report bad tab
2 comments total.
0 reply
demertzi 62 May 04, 2014 04:22 PM

I don't understand why you made another tab for this song, the first version was perfect. Yours isn't an improvement of the first tab, it's actually much worse.

0 reply
lilliev 10 Mar 19, 2015 08:38 AM

Lack of accuracy. It starts off fine but then it gets lost somewhere along the way. I have found similar tabs online but after about the 5th tab they are completely different.

guest
You may want to rate the tab now too:
select rating
Wanna post a correction for this tab? Suggest correction