Oops, an error
Loading. Please wait.

Do I Wanna Know Tab

version 4
version 4
188,382 views 684 this week
8 commentsread comments
1 2 3 4 5
x 61
add to favorites
launch autoscroll
font size
0
reset
how to read this tab
guitar tuner
Autoscroll
slow
fast
+/-
esc
set tempo
stop
Help us to improve Ultimate-Guitar.com Take our survey!
×
Author
Alex Turner plays:

E|------------------------=--------------------------------|
B|-----------------------=---------------------------------|
G|---------------------------------------------------------|
D|--------------------1/3--1--0---------------------0-0----|  
A|------1-----------1-----------3----1-3/5/3----1h3--------|
E|---1h3--3------1h3-------------------------------------3-|

E|------------------------=--------------------------------|
B|-----------------------=---------------------------------|
G|---------------------------------------------------------|
D|--------------------1/3--1--0---------------------0-0----|  
A|------1-----------1-----------3----1-3/5/3----1h3--------|
E|---1h3--3------1h3-------------------------------------3-|

E|------------------------=--------------------------------|
B|-----------------------=---------------------------------|
G|---------------------------------------------------------|
D|--------------------1/3--1--0---------------------0-0----|  
A|------1-----------1-----------3----1-3/5/3----1h3--------|
E|---1h3--3------1h3-------------------------------------3-|

E|------------------------=--------------------------------|
B|-----------------------=---------------------------------|
G|---------------------------------------------------------|
D|--------------------1/3--1--0---------------------0-0----|  
A|------1-----------1-----------3----1-3/5/3----1h3--------|
E|---1h3--3------1h3-------------------------------------3-|

E|------------------------=--------------------------------|
B|-----------------------=---------------------------------|
G|---------------------------------------------------------|
D|--------------------1/3--1--0---------------------0-0----|  
A|------1-----------1-----------3----1-3/5/3----1h3--------|
E|---1h3--3------1h3-------------------------------------3-|

E|------------------------=--------------------------------|
B|-----------------------=---------------------------------|
G|---------------------------------------------------------|
D|--------------------1/3--1--0---------------------0-0----|  
A|------1-----------1-----------3----1-3/5/3----1h3--------|
E|---1h3--3------1h3-------------------------------------3-|

Pre-chorus

E|-------------------------------------------------------|
B|-------------------------------------------------------|
G|-------------------------------------------------------|
D|----------------------------0--------------------------|  
A|----3h5--6-5-3---1-3----1-3----------------------------|
E|-----------------------------3-------------------------|

E|------------------------=--------------------------------|
B|-----------------------=---------------------------------|
G|---------------------------------------------------------|
D|--------------------1/3--1--0---------------------0-0----|  
A|------1-----------1-----------3----1-3/5/3----1h3--------|
E|---1h3--3------1h3-------------------------------------3-|

Chorus

E|------------------------=--------------------------------|
B|-----------------------=---------------------------------|
G|---------------------------------------------------------|
D|--------------------1/3--1--0---------------------0-0----|  
A|------1-----------1-----------3----1-3/5/3----1h3--------|
E|---1h3--3------1h3-------------------------------------3-|

E|------------------------=--------------------------------|
B|-----------------------=---------------------------------|
G|---------------------------------------------------------|
D|--------------------1/3--1--0---------------------0-0----|  
A|------1-----------1-----------3----1-3/5/3----1h3--------|
E|---1h3--3------1h3-------------------------------------3-|

Just bass for a while and when he says ''of trying to kiss
 you...'' he plays:

E|-------------------------------------------------------|
B|-------------------------------------------------------|
G|-------------------------------------------------------|
D|--------------------3--1--0----------0----------0-0----|  
A|------------------1---------3----1-3---3----1h3--------|
E|--------3------1h3-----------------------------------3-|

E|-------------------------------------------------------|
B|-------------------------------------------------------|
G|-------------------------------------------------------|
D|--------------------3--1--0----------0---------5/1-----|  
A|------------------1---------3----1-3---3----5----------|
E|--------3------1h3-------------------------------------|

Pre-Chorus

E|-------------------------------------------------------|
B|-------------------------------------------------------|
G|-------------------------------------------------------|
D|----------------------------0--------------------------|  
A|----3h5--6-5-3---1-3----1-3----------------------------|
E|-----------------------------3-------------------------|

E|------------------------=--------------------------------|
B|-----------------------=---------------------------------|
G|---------------------------------------------------------|
D|--------------------1/3--1--0---------------------0-0----|  
A|------1-----------1-----------3----1-3/5/3----1h3--------|
E|---1h3--3------1h3-------------------------------------3-|

E|-------------------------------------------------------|
B|-------------------------------------------------------|
G|-------------------------------------------------------|
D|-------------------------------------------------------|  
A|------1------------------------------------------------|
E|---1h3--3----------------------------------------------|

Chorus

E|------------------------=--------------------------------|
B|-----------------------=---------------------------------|
G|---------------------------------------------------------|
D|--------------------1/3--1--0---------------------0-0----|  
A|------1-----------1-----------3----1-3/5/3----1h3--------|
E|---1h3--3------1h3-------------------------------------3-|

E|------------------------=--------------------------------|
B|-----------------------=---------------------------------|
G|---------------------------------------------------------|
D|--------------------1/3--1--0---------------------0-0----|  
A|------1-----------1-----------3----1-3/5/3----1h3--------|
E|---1h3--3------1h3-------------------------------------3-|

E|-------------------------------------------------------|
B|-------------------------------------------------------|
G|-------------------------------------------------------|
D|-----5/1---------------------------------0-------------|
A|--------------3h5---6-5-3----1-3---1-3-----------------|
E|-------------------------------------------3-----------|

E|-------------------------------------------------------|
B|-------------------------------------------------------|
G|-------------------------------------------------------|
D|---------------5/1------------------------------0------| 
A|------1----------------3h5---6-5-3----1-3---1-3--------|
E|---1h3--3----------------------------------------3-----|

E|-------------------------------------------------------|
B|-------------------------------------------------------|
G|-------------------------------------------------------|
D|---------------5/1------------------------------0------| 
A|------1----------------3h5---6-5-3----1-3---1-3--------|
E|---1h3--3----------------------------------------3-----|

E|-------------------------------------------------------|
B|-------------------------------------------------------|
G|-------------------------------------------------------|
D|---------------5/1------------------------------0------| 
A|------1----------------3h5---6-5-3----1-3---1-3--------|
E|---1h3--3----------------------------------------3-----|

E|-------------------------------------------------------|
B|-------------------------------------------------------|
G|-------------------------------------------------------|
D|-------0-------------------0---------------0-----------|  
A|---1h3-----------------1h3--------------1h3------------|
E|--------3-------3r----------3------3r-------3----3r--3~|

Jamie's part for the last chorus and outro :

E|-------------------------------------------------------|
B|-------------------------------------------------------|
G|---14---14--15-17---14-15------------------------------|
D|-17---17-----------------------------------------------|
A|-------------------------------------------------------|
E|-------------------------------------------------------|



Tabbed by Katerina Mastro.
Suggest correction
comments
print report bad tab
8 comments total. Showing first comments.
+3 reply
Lathrisk 10 Oct 02, 2013 07:59 AM

I modified your main first riff to the following, see what you think?

E|-------------------------------------------------------|
B|-------------------------------------------------------|
G|-------------------------------------------------------|
D|--------------------3--1--0----------0----------0-0----|
A|------1-----------1---------3----1-3---3----1h3--------|
E|---1h3--3------1h3-----------------------------------3-|

+2 reply
Lathrisk 10 Oct 02, 2013 08:00 AM

Sorry!

E|------------------------=--------------------------------|
B|-----------------------=---------------------------------|
G|---------------------------------------------------------|
D|--------------------1/3--1--0---------------------0-0----|
A|------1-----------1-----------3----1-3/5/3----1h3--------|
E|---1h3--3------1h3-------------------------------------3-|

0 reply
katerina.m. 84 Oct 11, 2013 02:18 PM

It sounds better to me!would you mind if i used it in the tabs?

guest
You may want to rate the tab now too:
select rating
Wanna post a correction for this tab? Suggest correction