Oops, an error
Loading. Please wait.

Do I Wanna Know Tab

version 5
version 5
16,258 views 138 this week
no commentswrite comment
1 2 3 4 5
x 4
add to favorites
launch autoscroll
font size
0
reset
how to read this tab
guitar tuner
Autoscroll
slow
fast
+/-
esc
set tempo
stop
Help us to improve Ultimate-Guitar.com Take our survey!
×
Author
Difficulty
intermediate
-------------------------------------------------------------------------------
                                      Do I Wanna Know? - Arctic Monkeys
-------------------------------------------------------------------------------
Tabbed by: Juln

Tuning: Standard

(Drum intro, then into the main riff)

e|---------------------------------------------------------|
B|---------------------------------------------------------|
G|---------------------------------------------------------|
D|---------------------------------------------------------|
A|----------------------/8-6--5-3---1h3/5-3--1h3/5-/5------|
E|-----1h3/6-3---0h1h3---------------------------------3---|

This riff goes on though the verse until it plays
("Spilling drinks on my settee")

e|-------------------------------------------------|
B|-------------------------------------------------|
G|-------------------------------------------------|
D|-------------------------------------------------|
A|----------------------/8-6--5-3---1h3/5-3--/5----|
E|-----1h3/6-3---0h1h3-----------------------------|


[Pre-Chorus]

("Do I wanna know? If this feeling flows both ways")
There are actually 3 guitars here, two of them play the same riff, but one plays it with 
a high tremolo effect

(Gtr 1)

e|--------------------------------------------|
B|--------------------------------------------|
G|--------------------------------------------|
D|--------------------------------------------|
A|--10\6---3h5h6-5-3--1-3--1h3/5--------------|
E|-------------------------------3--1h3/6-3---|

(Gtr 2)

e|---------------------------------|
B|---------------------------------|
G|---------------------------------|
D|---------------------------------|
A|--10\6---3h5h6-5-3--1-3----------|
E|-------------------------5---5---|

(Gtr 3) 
(great sustain and feedback)

e|-----------|
B|-----------|
G|--12~------|
D|-----------|
A|-----------|
E|-----------|


[Chorus]

("Crawling back to you")
It's basically the main riff but with it kicks in like this

(Gtr 1)

e|---------------------------------------------------------|
B|---------------------------------------------------------|
G|---------------------------------------------------------|
D|---------------------------------------------------------|
A|----------------------/8-6--5-3---1h3/5-3--1h3/5-/5------|
E|---3p1h3/6-3---0h1h3---------------------------------3---|

(Gtr 2)

e|---------------------------------------------------------|
B|---------------------------------------------------------|
G|---------------------------------------------------------|
D|---------------------------------------------------------|
A|----------------------/8-6--5-3---1h3/5-3--1h3/5-/5------|
E|-----1h3/6-3---0h1h3---------------------------------3---|

(Gtr 3)

e|-----------|
B|-----------|
G|--12~------|
D|-----------|
A|-----------|
E|-----------|


[Verse 2]
(first only bass, then the main riff)

e|--------------------------------------------------|
B|--------------------------------------------------|
G|--------------------------------------------------|
D|--------------------------------------------------|
A|---------------/8-6--5-3---1h3/5-3--1h3/5-/5------|
E|----3---0h1h3---------------------------------3---|

e|-------------------------------------------------|
B|-------------------------------------------------|
G|-------------------------------------------------|
D|-------------------------------------------------|
A|----------------------/8-6--5-3---1h3/5-3--/5----|
E|-----1h3/6-3---0h1h3-----------------------------|


[Pre-Chorus]

(Gtr 1,2)

e|--------------------------------------------|
B|--------------------------------------------|
G|--------------------------------------------|
D|--------------------------------------------| 
A|--10\6---3h5h6-5-3--1-3--1h3/5--------------|
E|-------------------------------3--1h3/6-3---|  (x2)

(Gtr 3)

e|-----------|
B|-----------|
G|--12~------|
D|-----------|
A|-----------|
E|-----------|


[Chorus]

(Gtr 1)

e|---------------------------------------------------------|
B|---------------------------------------------------------|
G|---------------------------------------------------------|
D|---------------------------------------------------------|
A|----------------------/8-6--5-3---1h3/5-3--1h3/5-/5------|
E|---3p1h3/6-3---0h1h3---------------------------------3---|

(Gtr 2)

e|---------------------------------------------------------|
B|---------------------------------------------------------|
G|---------------------------------------------------------|
D|---------------------------------------------------------|
A|----------------------/8-6--5-3-3-1h3/5-3--1h3/5-/5------|
E|-----1h3/6-3---0h1h3---------------------------------3---|

(Gtr 3)

e|-----------|
B|-----------|
G|--12~------|
D|-----------|
A|-----------|
E|-----------|


[Outro]


(Gtr 1,2)

e|--------------------------------------------|
B|--------------------------------------------|
G|--------------------------------------------|
D|--------------------------------------------|
A|--10\6---3h5h6-5-3--1-3--1h3/5--------------|
E|-------------------------------3--1h3/6-3---|  (x2)

e|-------------------------------------------------|
B|-------------------------------------------------|
G|-------------------------------------------------|
D|-------------------------------------------------|
A|--10\6--1-3h5h6-5-3--1-3--1h3/5------------------|
E|--------------------------------3--3p1h3/6-1-----|

e|----------------------------|
B|----------------------------|
G|----------------------------|
D|----------------------------|
A|--10\6---3h5h6-5-3--1-3-----|
E|-------------------------3--|

e|---------------|
B|---------------|
G|---------------|
D|---------------|  
A|--1h3/5--------|
E|--------3---3--|  (x2)

(Gtr 3)

e|------------------------------|
B|------------------------------|
G|--12h14--12h14--15h17--14h15--|
D|------------------------------|
A|------------------------------|
E|------------------------------|

************************************

| h  Hammer-on
| p  Pull-off
| /  Slide up
| \  Slide down
| ~  Vibrato

************************************
Suggest correction
comments
print report bad tab
guest
You may want to rate the tab now too:
select rating
Wanna post a correction for this tab? Suggest correction