Oops, an error
Loading. Please wait.

Electricity Bass Tab

version 2
version 2

Whole song

  • A lot more precision than the older version, it was also requested.
19 views 1 this week
no commentswrite comment
1 2 3 4 5
2 more votes to show rating
add to favorites
launch autoscroll
font size
0
reset
guitar tuner
Autoscroll
slow
fast
+/-
esc
set tempo
stop
Help us to improve Ultimate-Guitar.com Take our survey!
×
Author
Difficulty
intermediate
About this tab version
A lot more precision than the older version, it was also requested. Was this info helpful? Yes No
Artist : Arctic Monkeys
Album : R U Mine ?
Song : Electricity


[Intro] 0:05
9/8
G|------------------------|
D|------------------------|
A|7-7-7-5-5-5-------------|
E|------------7-7-7-5-5-5-|
  1 + + 2 + + 3 + + 4 + +  

[Main Riff]

G|------------------------|
D|------------------------|
A|------------3h5---3-----| x20
E|0---0-0-3h5-------------|
  1 + + 2 + + 3 + + 4 + +  

[Chorus]

G|------------------------|------------------------|------------------------|-----------------------|
D|------------------------|------------------------|------------------------|-----------------------|
A|------------------------|------------------------|------------------------|-----------------------| x2
E|5-5-5-5-5-5-5-----------|3-3-3-3-3-3-3-----------|1-1-1-1-1-1-1-----------|0-0-0-0-0-0-0----------|
  1 + + 2 + + 3 + + 4 + +  1 + + 2 + + 3 + + 4 + +  1 + + 2 + + 3 + + 4 + +  1 + + 2 + + 3 + + 4 + +

[Chorus]
G|------------------------|------------------------|------------------------|-----------------------|
D|----------5h7p5---------|----------3h5p3---------|----------1h3p1---------|-----------------------|
A|------5h7-------7p5-----|------3h5-------5p3-----|------1h3-------3p1-----|7-----5----------------|
E|5---5-------------------|3---3-------------------|1---1-------------------|------------8-----7----|
  1 + + 2 + + 3 + + 4 + +  1 + + 2 + + 3 + + 4 + +  1 + + 2 + + 3 + + 4 + +  1 + + 2 + + 3 + + 4 + +

G|------------------------|------------------------|------------------------|-----------------------|
D|----------5h7p5---------|----------3h5p3---------|----------1h3p1---------|6-6-6-6-6-6-6----------|
A|------5h7-------7p5-----|------3h5-------5p3-----|------1h3-------3p1-----|-----------------------| 
E|5---5-------------------|3---3-------------------|1---1-------------------|-----------------------|
  1 + + 2 + + 3 + + 4 + +  1 + + 2 + + 3 + + 4 + +  1 + + 2 + + 3 + + 4 + +  1 + + 2 + + 3 + + 4 + +

[Main Riff]

G|------------------------|
D|------------------------|
A|------------3h5---3-----| x4
E|0---0-0-3h5-------------|
  1 + + 2 + + 3 + + 4 + +  

[Verse]

G|------------------------|
D|------------------------|
A|------------------------| x8
E|0---0-0-----------------|
  1 + + 2 + + 3 + + 4 + +

[Main Riff]

G|------------------------|
D|------------------------|
A|------------3h5---3-----| x8
E|0---0-0-3h5-------------|
  1 + + 2 + + 3 + + 4 + +  

[Pre-Chorus]

G|------------------------|------------------------|------------------------|-----------------------|
D|------------------------|------------------------|------------------------|-----------------------|
A|------------------------|------------------------|------------------------|-----------------------| x2
E|5-5-5-5-5-5-5-----------|3-3-3-3-3-3-3-----------|1-1-1-1-1-1-1-----------|0-0-0-0-0-0-0----------|
  1 + + 2 + + 3 + + 4 + +  1 + + 2 + + 3 + + 4 + +  1 + + 2 + + 3 + + 4 + +  1 + + 2 + + 3 + + 4 + +

[Chorus]

G|------------------------|------------------------|------------------------|-----------------------|
D|----------5h7p5---------|----------3h5p3---------|----------1h3p1---------|-----------------------|
A|------5h7-------7p5-----|------3h5-------5p3-----|------1h3-------3p1-----|7-7-7-5-5-5------------|
E|5---5-------------------|3---3-------------------|1---1-------------------|------------8-8-8-7-7-7|
  1 + + 2 + + 3 + + 4 + +  1 + + 2 + + 3 + + 4 + +  1 + + 2 + + 3 + + 4 + +  1 + + 2 + + 3 + + 4 + +

G|------------------------|------------------------|------------------------|-----------------------|
D|----------5h7p5---------|----------3h5p3---------|----------1h3p1---------|-----------------------|
A|------5h7-------7p5-----|------3h5-------5p3-----|------1h3-------3p1-----|7-7-7-5-5-5------------|
E|5---5-------------------|3---3-------------------|1---1-------------------|------------8-8-8-7-7-7|
  1 + + 2 + + 3 + + 4 + +  1 + + 2 + + 3 + + 4 + +  1 + + 2 + + 3 + + 4 + +  1 + + 2 + + 3 + + 4 + +

[Solo]

G|------------------------|------------------------|------------------------|-----------------------|
D|------------7-----------|------------5-----------|------------3-----------|2-----------2----------|
A|------------------------|------------------------|------------------------|-----------------------|
E|5-----------------------|3-----------------------|1-----------------------|-----------------------|
  1 + + 2 + + 3 + + 4 + +  1 + + 2 + + 3 + + 4 + +  1 + + 2 + + 3 + + 4 + +  1 + + 2 + + 3 + + 4 + +

G|------------------------|------------------------|------------------------|-----------------------|
D|------------7-----------|------------5-----------|------------3-----------|---Drum fill-----------|
A|------------------------|------------------------|------------------------|-----------------------|
E|5-----------------------|3-----------------------|1-----------------------|-----------------------|
  1 + + 2 + + 3 + + 4 + +  1 + + 2 + + 3 + + 4 + +  1 + + 2 + + 3 + + 4 + +  1 + + 2 + + 3 + + 4 + +

[Interlude]
G|------------------------|------------------------|------------------------|------------------------|
D|------------------------|------------------------|------------------------|------------2-----------|
A|------------------------|3-----3-----3-----3-----|------------------------|------------------5---3-|
E|1-----1-----1-----1-----|------------------------|3h5-5-5-----3h5-5-5-----|3h5-5-5-----------------|
  1 + + 2 + + 3 + + 4 + +  1 + + 2 + + 3 + + 4 + +  1 + + 2 + + 3 + + 4 + +  1 + + 2 + + 3 + + 4 + +

G|------------------------|------------------------|------------------------|------------------------|
D|------------------------|------------------------|5h7-7-7-----5h7-7-7-----|7-----5-----------------|
A|------------------------|3-----3-----3-----3-----|------------------------|------------7-----5-----|
E|1-----1-----1-----1-----|------------------------|------------------------|------------------------|
  1 + + 2 + + 3 + + 4 + +  1 + + 2 + + 3 + + 4 + +  1 + + 2 + + 3 + + 4 + +  1 + + 2 + + 3 + + 4 + +

G|------------------------|------------------------|------------------------|------------------------|
D|------------------------|------------------------|------------------------|------------------------|
A|------------------------|3-----3-----3-----3-----|------------------------|3-3-3-3-----3-3-3-3-----|
E|1-----1-----1-----1-----|------------------------|3h5-5-5-----3h5-5-5-----|------------------------|
  1 + + 2 + + 3 + + 4 + +  1 + + 2 + + 3 + + 4 + +  1 + + 2 + + 3 + + 4 + +  1 + + 2 + + 3 + + 4 + +

G|------------------------|------------------------|------------------------|------------------------|
D|------------------------|------------------------|------------------------|------------------------|
A|5-----5-----5-----5-----|5-----5-----5-----5-----|5\6-6-6-6-6-5\6-6-6-6-6-|5\6-6-6-6-6-6-6-6-6-6-6-|
E|------------------------|------------------------|------------------------|------------------------|
  1 + + 2 + + 3 + + 4 + +  1 + + 2 + + 3 + + 4 + +  1 + + 2 + + 3 + + 4 + +  1 + + 2 + + 3 + + 4 + +

Wait 2 Guitar loops

[Main Riff]

G|------------------------|
D|------------------------|
A|------------3h5---3-----| x8
E|0---0-0-3h5-------------|
  1 + + 2 + + 3 + + 4 + +  

[Outro]

G|------------------------||
D|------------------------||
A|------------------------||
E|------------------4-----||
  1 + + 2 + + 3 + + 4 + +  




************************************

| x   Dead note
| h   Hammer-on
| p   Pull-off
| r   Release
| /   Slide up
| \   Slide down

************************************
Suggest correction
Give kudos to tab author, rate the tab!
1 2 3 4 5
comments
print report bad tab
guest
You may want to rate the tab now too:
select rating
Wanna post a correction for this tab? Suggest correction