Oops, an error
Loading. Please wait.

Evil Twin bass

version 1
version 1

Whole song

Interactive

8,021 views 12 this week
no commentswrite comment
1 2 3 4 5
x 7
add to favorites
×
Save as Personal and add changes to this tab that will be seen only by you. Learn more ›
×
You can save this tab as Personal to edit and correct it or add notes. All changes will be seen only by you. Learn more »
launch autoscroll
font size
0
reset
guitar tuner
backing track
0:00
0:00
edit
Autoscroll
slow
fast
+/-
esc
set tempo
stop
Author
Difficulty
Artist: Arctic Monkeys

Album: Suck It And See (Single)



All tabs by Pedro Zappa
-----------------------------------------------------------------------------
-----------------------------------------------------------------------------

2. Evil Twin


Intro

G||--------------------|--------------------||  x3
D||--------------------|--------------------||
A||--------------------|--------------------||
E||-2----2----0-2--0-5-|---0--2----0-2--2-0-||
    i    i    i    i     i    i    i    i
G||--------------------|--------------------||
D||------------------7-|--------------------||
A||-------------7--9---|---7--9----7-9--9-7-||
E||-2----2----9--------|--------------------||
    i    i    i    i     i    i    i    i

G||--------------------|--------------------||  x3
D||------------------7-|--------------------||
A||-9----9----7-9--7---|---7--9----7-9--9-7-||
E||--------------------|--------------------||
    i    i    i    i     i    i    i    i
G||--------------------|--------------------||
D||------------------7-|--------------------||
A||-9----9------7--9---|---7--9----7-9--9-7-||
E||-----------9--------|--------------------||
    i    i    i    i     i    i    i    i

Verse 1

G||--------------------|--------------------||  x3
D||------------------7-|--------------------||
A||-9----9----7-9--7---|---7--9----7-9--9-7-||
E||--------------------|--------------------||
    i    i    i    i     i    i    i    i
G||--------------------|--------------------||
D||------------------7-|--------------------||
A||-9----9------7--9---|---7--9----7-9--9-7-||
E||-----------9--------|--------------------||
    i    i    i    i     i    i    i    i

G||--------------------|--------------------||  x3
D||------------------7-|--------------------||
A||-9----9----7-9--7---|---7--9----7-9--9-7-||
E||--------------------|--------------------||
    i    i    i    i     i    i    i    i
G||--------------------|--------------------||
D||------------------7-|--------------------||
A||-9----9------7--9---|---7--9----7-9--9\--||
E||-----------9--------|--------------------||
    i    i    i    i     i    i    i    i

Chorus 1

G||--------------------|--------------------|
D||--------------------|--------------------|
A||-5----5----5-0--4-2-|---2--2-0--2-0----0-|
E||--------------------|----------------2---|
    i    i    i    i     i    i    i    i
G||--------------------|--------------------|
D||--------------------|--------------------|
A||-5----5----5-0--4-2-|---2--2-0--2-4----0-|
E||--------------------|----------------2---|
    i    i    i    i     i    i    i    i
G||--------------------|--------------------|
D||--------------------|--------------------|
A||-5----5----5-0--4-2-|---2--2------0--2-4-|   
E||--------------------|--------0--2--------|
    i    i    i    i     i    i    i    i
G||--------------------|--------------------||
D||--------------------|--------------------||
A||-5----5----5-0--4-2-|---2----3----3------||
E||--------------------|--------------------||
    i    i    i    i     i    i    i    i

G||--------------------|--------------------||  x3
D||------------------7-|--------------------||
A||-9----9----7-9--7---|---7--9----7-9--9-7-||
E||--------------------|--------------------||
    i    i    i    i     i    i    i    i
G||--------------------|--------------------||
D||------------------7-|---9--9-9--9-7------||
A||-9----9------7--9---|----------------9-7-||
E||-----------9--------|--------------------||
    i    i    i    i     i    i    i    i

Verse 2

G||--------------------|--------------------||  x2
D||------------------7-|--------------------||
A||-9----9----7-9--7---|---7--9----7-9--9-7-||
E||--------------------|--------------------||
    i    i    i    i     i    i    i    i
G||--------------------|--------------------|
D||--------------------|--------------------|
A||-5----5----5-5--5-0-|---0--0-2----2--2-2-|
E||--------------------|--------------------|
    i    i    i    i     i    i    i    i

G||--------------------|--------------------||  x2
D||------------------7-|--------------------||
A||-9----9----7-9--7---|---7--9----7-9--9-7-||
E||--------------------|--------------------||
    i    i    i    i     i    i    i    i
G||--------------------|--------------------|
D||--------------------|--------------------|
A||-5----5----5-5--5-0-|---0--0-2----2--2-2-|
E||--------------------|--------------------|
    i    i    i    i     i    i    i    i

G||--------------------|--------------------||  x2
D||------------------7-|--------------------||
A||-9----9----7-9--7---|---7--9----7-9--9-7-||
E||--------------------|--------------------||
    i    i    i    i     i    i    i    i

Chorus 2

G||--------------------|--------------------|
D||--------------------|--------------------|
A||-5----5----5-0--4-2-|---2--2-0--2-0----0-|
E||--------------------|----------------2---|
    i    i    i    i     i    i    i    i
G||--------------------|--------------------|
D||--------------------|--------------------|
A||-5----5----5-0--4-2-|---2--2-0--2-4----0-|
E||--------------------|----------------2---|
    i    i    i    i     i    i    i    i
G||--------------------|--------------------|
D||--------------------|--------------------|
A||-5----5----5-0--4-2-|---2--2-2--2-4--0---|   
E||--------------------|--------------------|
    i    i    i    i     i    i    i    i
G||--------------------|--------------------|
D||--------------------|--------------------|
A||-5----5----5-0--4-2-|---2----3----3------|
E||--------------------|--------------------|
    i    i    i    i     i    i    i    i

Bridge

G||--------------------|--------------------||  x2
D||--------------------|--------------------||
A||-4-4--4-4--4-4----0-|-0-0--0-7--7-7--7-7-||
E||--------------------|--------------------||
    i    i    i    i     i    i    i    i
G||--------------------|--------------------|
D||--------------------|--------------------|
A||-4----4-4--4-4--4-2-|---2--2-0----0--0-2-|
E||--------------------|--------------------|
    i    i    i    i     i    i    i    i
G||--------------------|--------------------|
D||--------------------|--------------------|
A||---2--2-0----0--0---|--------------------|
E||------------------4-|---4--4-3----3--3-3-|
    i    i    i    i     i    i    i    i

G||--------------------|--------------------||  x3
D||--------------------|--------------------||
A||--------------------|--------------------||
E||-2----2----0-2--0-5-|---0--2----0-2--2-0-||
    i    i    i    i     i    i    i    i
G||--------------------|--------------------||
D||------------------7-|--------------------||
A||-------------7--9---|--------------------||
E||-2----2----9--------|---0--2----0-2--2-0-||
    i    i    i    i     i    i    i    i

Verse 3

G||--------------------|--------------------||  x7
D||--------------------|--------------------||
A||--------------------|--------------------||
E||-2----2----0-2--0-5-|---0--2----0-2--2-0-||
    i    i    i    i     i    i    i    i
G||--------------------|--------------------||
D||------------------7-|--------------------||
A||-------------7--9---|--------------------||
E||-2----2----9--------|---0--2----0-2--2-0-||
    i    i    i    i     i    i    i    i
G||--------------------||
D||--------------------||
A||-2------------------||
E||--------------------||
    i    i    i    i   

Chorus 3

G||--------------------|--------------------|
D||--------------------|--------------------|
A||-5----5----5-0--4-2-|---2--2-0--2-0----0-|
E||--------------------|----------------2---|
    i    i    i    i     i    i    i    i
G||--------------------|--------------------|
D||--------------------|--------------------|
A||-5----5----5-0--4-2-|---2--2-2--2-4--0---|   
E||--------------------|--------------------|
    i    i    i    i     i    i    i    i
G||--------------------|--------------------|
D||--------------------|--------------------|
A||-5----5----5-0--4-2-|---2--2-0--2-4----0-|
E||--------------------|----------------2---|
    i    i    i    i     i    i    i    i
G||--------------------|--------------------||  x3
D||--------------------|--------------------||
A||-5----5----5-0--4-2-|---2--2------0------||
E||--------------------|--------0--2----2-0-||
    i    i    i    i     i    i    i    i

G||--------------------|--------------------|
D||--------------------|--------------------|
A||-5-5--5-5--5-0--4-2-|---2--2-2--2-2--2-2-|
E||--------------------|--------------------|
    i    i    i    i     i    i    i    i
G||--------------------|--------------------|
D||--------------------|--------------------|
A||-5-5--5-5--5-0--4-2-|---2--2-2--2-2--2-2-|
E||--------------------|--------------------|
    i    i    i    i     i    i    i    i
G||--------------------|--------------------|
D||--------------------|--------------------|
A||-5-5--5-5--5-0--4-2-|---2--2------0--2-4-|   
E||--------------------|--------0--2--------|
    i    i    i    i     i    i    i    i
G||--------------------|--------------------|
D||--------------------|--------------------|
A||-5----5----5-0--4-2-|---2----3----3--3-3-|
E||--------------------|--------------------|
    i    i    i    i     i    i    i    i
G||--------------------||
D||--------------------||
A||--------------------||
E||-2------------------||
    i    i    i    i   


Tab by Pedro Zappa
-----------------------------------------------------------------------------
-----------------------------------------------------------------------------


            
            
Suggest correction
Creating personal tab
Creating personal tab
You can edit any tab online and save it as your Personal.

You can edit, replace or remove any tab part or add personal notes – all changes will be seen only by you.

Personal tabs can be accessed anytime from any device, even offline.
Learn more »
comments
print report bad tab
guest
You may want to rate the tab now too:
select rating
Wanna post a correction for this tab? Suggest correction