Oops, an error
Loading. Please wait.

Fake Tales Of San Francisco Tab

version 1
version 1
178,705 views 249 this week
10 commentsread comments
1 2 3 4 5
accurate
x 17
add to favorites
launch autoscroll
font size
0
reset
how to read this tab
guitar tuner
Autoscroll
slow
fast
+/-
esc
set tempo
stop
Help us to improve Ultimate-Guitar.com Take our survey!
×
Contributor
Tabbed by Leolib
Email: leolibertine@gmail.com

Tuning standard


[Drum Intro]


[Intro] (x2)

Guitar 1 with this funky riff
e|--------------------------------------------------------------------------|
B|--------------------------------------------------------------------------|
G|---------------------------------------------------------4----------------|
D|-----0-----0-2p0-----0-----0-2p0-----0-----0-2p0-----0-2---2-0------------|
A|--2-----2---------2-----2---------2-----2---------2-------------2---------|
E|--------------------------------------------------------------------------|

Guitar 2, played with up strokes (i think)
e|---7---7----5------7---7----5------7---7----5------7---7----5-------------|
B|---7---7----5------7---7----5------7---7----5------7---7----5-------------|
G|--------------------------------------------------------------------------|
D|--------------------------------------------------------------------------|
A|--------------------------------------------------------------------------|
E|--------------------------------------------------------------------------|


[Verse] (x4)

Guitar 1
   Fake Tales....
e|--------------------------------------------------------------------------|
B|--------------------------------------------------------------------------|
G|---------------------------------------------------------4----------------|
D|-----0-----0-2p0-----0-----0-2p0-----0-----0-2p0-----0-2---2-0------------|
A|--2-----2---------2-----2---------2-----2---------2-------------2---------|
E|--------------------------------------------------------------------------|


[Verse] (x4)

Guitar 2
e|---7---7----5------7---7----5------7---7----5------7---7----5-------------|
B|---7---7----5------7---7----5------7---7----5------7---7----5-------------|
G|--------------------------------------------------------------------------|
D|--------------------------------------------------------------------------|
A|--------------------------------------------------------------------------|
E|--------------------------------------------------------------------------|


[Chorus] (x4)

Guitars stop and bass plays riff on last 'kick me out'

D|--------------------------------------------------------------------------|
G|--------------------------------------------------------------------------|
A|---------------------------------------------------------------------0-2--|
E|-----------------------------------------------------------------0-2------|


[Verse] (x4)

Both Guitars

e|--------------------------------------------------------------------------|
B|--------------------------------------------------------------------------|
G|---------------------------------------------------------4----------------|
D|-----0-----0-2p0-----0-----0-2p0-----0-----0-2p0-----0-2---2-0------------|
A|--2-----2---------2-----2---------2-----2---------2-------------2---------|
E|--------------------------------------------------------------------------|


[Chorus 2] 

(played as before)

Bridge using power chords
Guitar 1 (x4)

e|-----------------------------------------------------------------------------------------------|
B|-----------------------------------------------------------------------------------------------|
G|--------------------------------9-9-9-9-9-9-9-9-9-9-9-9-9-9-9-9--------------------------------|
D|9-9-9-9-9-9-9-9-9-9-9-9-9-9-9-9-5-5-5-5-5-5-5-5-5-5-5-5-5-5-5-5-9-9-9-9-9-9-9-9-9-9-9-9-9-9-9-9|
A|9-9-9-9-9-9-9-9-9-9-9-9-9-9-9-9-5-5-5-5-5-5-5-5-5-5-5-5-5-5-5-5-7-7-7-7-7-7-7-7-7-7-7-7-7-7-7-7|
E|7-7-7-7-7-7-7-7-7-7-7-7-7-7-7-7-3-3-3-3-3-3-3-3-3-3-3-3-3-3-3-3--------------------------------|

e|--------------------------------|
B|--------------------------------|
G|--------------------------------|
D|-9-9-9-9-9-9-9-9-9-9-9-9-9-9-9-9|
A|-9-9-9-9-9-9-9-9-9-9-9-9-9-9-9-9|
E|-7-7-7-7-7-7-7-7-7-7-7-7-7-7-7-7|


Guitar 2 (x4)
e|---------------------------------------------------------------------|
B|---------------------------------------------------------------------|
G|---------------------------------------------------------------------|
D|9-9-9-9-9-9-9-9-9-9-9-9-9-9-9-9-5-5-5-5-5-5-5-5-5-5-5-5-5-5-5-5-2-2-2|
A|9-9-9-9-9-9-9-9-9-9-9-9-9-9-9-9-5-5-5-5-5-5-5-5-5-5-5-5-5-5-5-5-2-2-2|
E|7-7-7-7-7-7-7-7-7-7-7-7-7-7-7-7-3-3-3-3-3-3-3-3-3-3-3-3-3-3-3-3-0-0-0|

e|----------------------------------------------------|
B|----------------------------------------------------|
G|----------------------------------------------------|
D|-2-2-2-2-2-2-2-2-2-2-2-2-2-9-9-9-9-9-9-9-9-9-9------|
A|-2-2-2-2-2-2-2-2-2-2-2-2-2-9-9-9-9-9-9-9-9-9-9-----7|
E|-0-0-0-0-0-0-0-0-0-0-0-0-0-7-7-7-7-7-7-7-7-7-7-7-10-|


[Outro]

Guitar 1

e|---7---7----5------7---7----5------7---7----5------7---7----5-------------|
B|---7---7----5------7---7----5------7---7----5------7---7----5-------------|
G|--------------------------------------------------------------------------|
D|--------------------------------------------------------------------------|
A|--------------------------------------------------------------------------|
E|--------------------------------------------------------------------------|

Then both guitars

e|---7---7----5------7---7----5------7---7----5------7---7----5-----7---|
B|---7---7----5------7---7----5------7---7----5------7---7----5-----7---|
G|----------------------------------------------------------------------|
D|----------------------------------------------------------------------|
A|----------------------------------------------------------------------|
E|----------------------------------------------------------------------|

Fantastic song by a fantastic band
love to the arctic army

************************************

| p  Pull-off

************************************
comments
print report bad tab
10 comments total. Showing first comments.
0 reply
bigsockrock 12 wrote on November 21 2005, 05:14 am

I think you'll find the riff goes like this:
¦¦------------- ¦¦-----------------
¦¦------------- ¦¦-----------------
¦¦------------- x3, then ¦¦---------2-------
¦¦---0---0-2p0- ¦¦---0-2s4---4p2p0-
¦¦-2---2------- ¦¦-2---------------
¦¦------------- ¦¦-----------------

0 reply
bigsockrock 12 wrote on November 21 2005, 05:17 am

sorry the second bit is:
¦¦-------------------
¦¦-------------------
¦¦-----------2-------
¦¦---0-2-2s4---4p2p0-
¦¦-2-----------------
¦¦-------------------

+1 reply
poipoi 1,026 wrote on April 13 2007, 05:05 am

There's one thing you should do different that is at the end:
e|---7---7----5------7---7----5------7---7----5------7---7----5/7---|E
B|---7---7----5------7---7----5------7---7----5------7---7----5/7---|N
G|------------------------------------------------------------------|D
D|------------------------------------------------------------------|E
A|------------------------------------------------------------------|N
E|------------------------------------------------------------------|D

I want to post or [tab]
guest
You may want to rate the tab now too:
select rating
Please do not post tabs as comments. Select "correction" instead!