Oops, an error
Loading. Please wait.

Fake Tales Of San Francisco Bass Tab

version 2
version 2
82,417 views 117 this week
18 commentsread comments
1 2 3 4 5
x 74
add to favorites
launch autoscroll
font size
0
reset
guitar tuner
Autoscroll
slow
fast
+/-
esc
set tempo
stop
Help us to improve Ultimate-Guitar.com Take our survey!
×
Difficulty
novice
G|--------------------------------------------------------|
D|-------------------------------------------------7------|
A|-----5---5-7-5----5---5-7-5----5---5-7-5---5-7-9---7-5--| x5
E|---7---7--------7---7--------7---7-------7--------------|

G|---------------------------------------------------------|
D|-------------------------------------------------7-------|
A|-----5---5-7-5----5---5-7-5----5---5-7-5---5-7-9---7-5---|
E|---7---7--------7---7--------7---7-------7-------------7-|

G|------------------|
D|------------------|
A|-----------0--2---| x3
E|-----0--3---------|

G|--------------------------------------------------------|
D|-------------------------------------------------7------|
A|-----5---5-7-5----5---5-7-5----5---5-7-5---5-7-9---7-5--| x3
E|---7---7--------7---7--------7---7-------7--------------|

G|---------------------------------------------------------|
D|-------------------------------------------------7-------|
A|-----5---5-7-5----5---5-7-5----5---5-7-5---5-7-9---7-5---|
E|---7---7--------7---7--------7---7-------7-------------7-|

G|------------------|
D|------------------|
A|-----------0--2---| x3
E|-----0--3---------|

G|------------------------------------------------------------------------------------|
D|--------------------------------------------------9-9-7-7-----7-7-------------------|
A|----------------------------------------------------------9-9------7-7-7-7-7-7-7-7--|
E|-7-7-7-7-7-7-7-7-7-7-7-7-7-7-7-7-3-3-3-3-3-3-3-3------------------------------------|

G|------------------------------------------7-8-9--|
D|-9-9-7-7-----7-7-9-9-9-9-9-9-9-9-9-9-9-9---------|
A|---------9-9-------------------------------------| x3
E|-------------------------------------------------|

G|------------------------------------------------------------------------------------|
D|--------------------------------------------------9-9-7-7-----7-7-------------------|
A|----------------------------------------------------------9-9------7-7-7-7-7-7-7-7--|
E|-7-7-7-7-7-7-7-7-7-7-7-7-7-7-7-7-3-3-3-3-3-3-3-3------------------------------------|

G|-----------------------------------------------------|
D|-9-9-7-7------7-7------------------------------------|
A|----------9-9------5-5-5-5-5-5-5-5-5-5-5-5-5-5-5-----|
E|--------------------------------------------------7--|

G|---------------------------------|
D|---------------------------------|
A|---5------5------5------5--------|
E|-7---7--7---7--7---7--7---7-7-7--|
Suggest correction
comments
print report bad tab
18 comments total. Showing first comments. show 1 bad comment
0 reply
joe-1-2-3-4-5-9 10 Jan 28, 2006 04:58 PM

Brilliant. thank you v much!

0 reply
dont_even_ask 10 Mar 28, 2006 02:09 PM

this is BRILL !

guest
You may want to rate the tab now too:
select rating
Wanna post a correction for this tab? Suggest correction