Oops, an error
Loading. Please wait.

Fake Tales Of San tab

59,423 views 21 this week
23 commentsread comments
1 2 3 4 5
x 135
add to favorites
×
Save as Personal and add changes to this tab that will be seen only by you. Learn more ›
×
You can save this tab as Personal to edit and correct it or add notes. All changes will be seen only by you. Learn more »
launch autoscroll
font size
0
reset
how to read this tab
guitar tuner
edit
Autoscroll
slow
fast
+/-
esc
set tempo
stop
Author
After watching this song played on tv live, i noticed that the way that Alex Turner
plays the main riff is different to most other tabs of this song. I personally think
that its easy to play it this way. 

Enjoy..

Main Riff (Intro and Verses):

e |---------------------------------------------------------------------|
B |---------------------------------------------------------------------|
G |---------------------------------------------------------------------|
D |----------------------------------------------------------7----------|
A |-----5-----5-7-5-----5-----5-7-5-----5-----5-7-5----5-7-9---9-7-5----|
E |--7-----7---------7-----7---------7-----7---------7---------------7--|

Second Guitar (During Verses:

e |--7-7---5---7-7---5---7-7---5--|
B |--7-7---5---7-7---5---7-7---5--|
G |-------------------------------|
D |-------------------------------|
A |-------------------------------|
E |-------------------------------|


Bridge (x4):

Guitar 1:

e|----------------------------------------------------------------|
B|----------------------------------------------------------------|
G|--------------------------------9999999999999999----------------|
D|9999999999999999555555555555555599999999999999999999999999999999|
A|9999999999999999555555555555555577777777777777779999999999999999|
E|77777777777777773333333333333333----------------7777777777777777|

Guitar 2:

e|------------------------------------------------------------------|
B|------------------------------------------------------------------|
G|------------------------------------------------------------------|
D|9999999999999999555555555555555522222222222222229999999999--------|
A|9999999999999999555555555555555522222222222222229999999999----7-9-|
E|7777777777777777333333333333333300000000000000007777777777-10-----|

Outro:

e |--7-7---5----------------------|
B |--7-7---5------Play 8 Times----|
G |-------------------------------|
D |-------------------------------|(Second guitar joins after first 2)
A |-------------------------------|
E |-------------------------------|

End on:

e |--7--|
B |--7--|
G |-----|
D |-----|
A |-----|
E |-----|


Another great song from the Arctic Monkeys. Please rate this tab!

Ryan

            
            
Suggest correction
Creating personal tab
Creating personal tab
You can edit any tab online and save it as your Personal.

You can edit, replace or remove any tab part or add personal notes – all changes will be seen only by you.

Personal tabs can be accessed anytime from any device, even offline.
Learn more »
comments
print report bad tab
23 comments total. Showing first comments.
0 reply
green_day9 325 Dec 31, 2005 06:35 AM

um i know this is a predictible comment but its san fransico no san............ otherwise ace tab dude ;')

+2 reply
rykenn 139 Jan 01, 2006 06:49 AM

i know mate, and i did put it in as the full name but for some reason when it was added to the site, it was shortened down, no idea why!

+4 reply
goodsum 575 Feb 03, 2006 06:23 AM

on the intro, i think it goes like like instead..... u put an extra notes near the end

D |----------------------------------------------------------7------|
A |-----5-----5-7-5-----5-----5-7-5-----5-----5-7-5----5-7-9---9-7--|
E |--7-----7---------7-----7---------7-----7---------7-------------7|

guest
You may want to rate the tab now too:
select rating
Wanna post a correction for this tab? Suggest correction